ISO-10303-21;
HEADER;
/* Generated by software containing ST-Developer
 * from STEP Tools, Inc. (www.steptools.com) 
 */
/* OPTION: strings as raw bytes, not using required /X/ escapes */

FILE_DESCRIPTION(
/* description */ ('Unknown'),
/* implementation_level */ '2;1');

FILE_NAME(
/* name */ 'CSTM2.5',
/* time_stamp */ '2016-12-02T12:25:41+06:00',
/* author */ ('Unknown'),
/* organization */ ('Unknown'),
/* preprocessor_version */ 'ST-DEVELOPER v16',
/* originating_system */ 'DEX',
/* authorisation */ $);

FILE_SCHEMA (('AUTOMOTIVE_DESIGN {1 0 10303 214 3 1 1}'));
ENDSEC;

DATA;
#10=PROPERTY_DEFINITION_REPRESENTATION(#14,#12);
#11=PROPERTY_DEFINITION_REPRESENTATION(#15,#13);
#12=REPRESENTATION('',(#16),#620);
#13=REPRESENTATION('',(#17),#620);
#14=PROPERTY_DEFINITION('pmi validation property','',#625);
#15=PROPERTY_DEFINITION('pmi validation property','',#625);
#16=VALUE_REPRESENTATION_ITEM('number of annotations',COUNT_MEASURE(0.));
#17=VALUE_REPRESENTATION_ITEM('number of views',COUNT_MEASURE(0.));
#18=SHAPE_REPRESENTATION_RELATIONSHIP('','',#390,#19);
#19=ADVANCED_BREP_SHAPE_REPRESENTATION('',(#388),#620);
#20=CYLINDRICAL_SURFACE('',#410,1.3);
#21=CYLINDRICAL_SURFACE('',#415,1.49999999999999);
#22=CYLINDRICAL_SURFACE('',#416,1.5);
#23=CIRCLE('',#394,1.3);
#24=CIRCLE('',#395,1.5);
#25=CIRCLE('',#396,1.49999999999999);
#26=CIRCLE('',#401,1.5);
#27=CIRCLE('',#402,1.3);
#28=CIRCLE('',#403,1.49999999999999);
#29=ORIENTED_EDGE('',*,*,#131,.T.);
#30=ORIENTED_EDGE('',*,*,#132,.F.);
#31=ORIENTED_EDGE('',*,*,#133,.F.);
#32=ORIENTED_EDGE('',*,*,#134,.T.);
#33=ORIENTED_EDGE('',*,*,#135,.T.);
#34=ORIENTED_EDGE('',*,*,#136,.F.);
#35=ORIENTED_EDGE('',*,*,#137,.F.);
#36=ORIENTED_EDGE('',*,*,#138,.F.);
#37=ORIENTED_EDGE('',*,*,#139,.T.);
#38=ORIENTED_EDGE('',*,*,#140,.T.);
#39=ORIENTED_EDGE('',*,*,#141,.T.);
#40=ORIENTED_EDGE('',*,*,#142,.T.);
#41=ORIENTED_EDGE('',*,*,#143,.F.);
#42=ORIENTED_EDGE('',*,*,#144,.F.);
#43=ORIENTED_EDGE('',*,*,#145,.F.);
#44=ORIENTED_EDGE('',*,*,#146,.F.);
#45=ORIENTED_EDGE('',*,*,#147,.F.);
#46=ORIENTED_EDGE('',*,*,#148,.T.);
#47=ORIENTED_EDGE('',*,*,#149,.F.);
#48=ORIENTED_EDGE('',*,*,#132,.T.);
#49=ORIENTED_EDGE('',*,*,#150,.F.);
#50=ORIENTED_EDGE('',*,*,#151,.T.);
#51=ORIENTED_EDGE('',*,*,#148,.F.);
#52=ORIENTED_EDGE('',*,*,#152,.F.);
#53=ORIENTED_EDGE('',*,*,#153,.T.);
#54=ORIENTED_EDGE('',*,*,#154,.T.);
#55=ORIENTED_EDGE('',*,*,#135,.F.);
#56=ORIENTED_EDGE('',*,*,#155,.F.);
#57=ORIENTED_EDGE('',*,*,#156,.T.);
#58=ORIENTED_EDGE('',*,*,#157,.T.);
#59=ORIENTED_EDGE('',*,*,#158,.T.);
#60=ORIENTED_EDGE('',*,*,#141,.F.);
#61=ORIENTED_EDGE('',*,*,#159,.T.);
#62=ORIENTED_EDGE('',*,*,#160,.T.);
#63=ORIENTED_EDGE('',*,*,#161,.T.);
#64=ORIENTED_EDGE('',*,*,#157,.F.);
#65=ORIENTED_EDGE('',*,*,#162,.T.);
#66=ORIENTED_EDGE('',*,*,#163,.T.);
#67=ORIENTED_EDGE('',*,*,#164,.T.);
#68=ORIENTED_EDGE('',*,*,#165,.T.);
#69=ORIENTED_EDGE('',*,*,#166,.T.);
#70=ORIENTED_EDGE('',*,*,#156,.F.);
#71=ORIENTED_EDGE('',*,*,#167,.T.);
#72=ORIENTED_EDGE('',*,*,#134,.F.);
#73=ORIENTED_EDGE('',*,*,#168,.T.);
#74=ORIENTED_EDGE('',*,*,#153,.F.);
#75=ORIENTED_EDGE('',*,*,#169,.T.);
#76=ORIENTED_EDGE('',*,*,#170,.T.);
#77=ORIENTED_EDGE('',*,*,#171,.T.);
#78=ORIENTED_EDGE('',*,*,#172,.T.);
#79=ORIENTED_EDGE('',*,*,#155,.T.);
#80=ORIENTED_EDGE('',*,*,#150,.T.);
#81=ORIENTED_EDGE('',*,*,#131,.F.);
#82=ORIENTED_EDGE('',*,*,#167,.F.);
#83=ORIENTED_EDGE('',*,*,#173,.T.);
#84=ORIENTED_EDGE('',*,*,#137,.T.);
#85=ORIENTED_EDGE('',*,*,#174,.F.);
#86=ORIENTED_EDGE('',*,*,#165,.F.);
#87=ORIENTED_EDGE('',*,*,#174,.T.);
#88=ORIENTED_EDGE('',*,*,#136,.T.);
#89=ORIENTED_EDGE('',*,*,#154,.F.);
#90=ORIENTED_EDGE('',*,*,#166,.F.);
#91=ORIENTED_EDGE('',*,*,#163,.F.);
#92=ORIENTED_EDGE('',*,*,#175,.T.);
#93=ORIENTED_EDGE('',*,*,#139,.F.);
#94=ORIENTED_EDGE('',*,*,#176,.F.);
#95=ORIENTED_EDGE('',*,*,#176,.T.);
#96=ORIENTED_EDGE('',*,*,#138,.T.);
#97=ORIENTED_EDGE('',*,*,#173,.F.);
#98=ORIENTED_EDGE('',*,*,#164,.F.);
#99=ORIENTED_EDGE('',*,*,#151,.F.);
#100=ORIENTED_EDGE('',*,*,#168,.F.);
#101=ORIENTED_EDGE('',*,*,#133,.T.);
#102=ORIENTED_EDGE('',*,*,#149,.T.);
#103=ORIENTED_EDGE('',*,*,#162,.F.);
#104=ORIENTED_EDGE('',*,*,#159,.F.);
#105=ORIENTED_EDGE('',*,*,#140,.F.);
#106=ORIENTED_EDGE('',*,*,#175,.F.);
#107=ORIENTED_EDGE('',*,*,#143,.T.);
#108=ORIENTED_EDGE('',*,*,#177,.T.);
#109=ORIENTED_EDGE('',*,*,#160,.F.);
#110=ORIENTED_EDGE('',*,*,#178,.T.);
#111=ORIENTED_EDGE('',*,*,#152,.T.);
#112=ORIENTED_EDGE('',*,*,#147,.T.);
#113=ORIENTED_EDGE('',*,*,#179,.F.);
#114=ORIENTED_EDGE('',*,*,#169,.F.);
#115=ORIENTED_EDGE('',*,*,#179,.T.);
#116=ORIENTED_EDGE('',*,*,#146,.T.);
#117=ORIENTED_EDGE('',*,*,#180,.F.);
#118=ORIENTED_EDGE('',*,*,#170,.F.);
#119=ORIENTED_EDGE('',*,*,#180,.T.);
#120=ORIENTED_EDGE('',*,*,#145,.T.);
#121=ORIENTED_EDGE('',*,*,#181,.F.);
#122=ORIENTED_EDGE('',*,*,#171,.F.);
#123=ORIENTED_EDGE('',*,*,#181,.T.);
#124=ORIENTED_EDGE('',*,*,#144,.T.);
#125=ORIENTED_EDGE('',*,*,#178,.F.);
#126=ORIENTED_EDGE('',*,*,#172,.F.);
#127=ORIENTED_EDGE('',*,*,#161,.F.);
#128=ORIENTED_EDGE('',*,*,#177,.F.);
#129=ORIENTED_EDGE('',*,*,#142,.F.);
#130=ORIENTED_EDGE('',*,*,#158,.F.);
#131=EDGE_CURVE('',#182,#183,#216,.T.);
#132=EDGE_CURVE('',#184,#183,#217,.T.);
#133=EDGE_CURVE('',#185,#184,#218,.T.);
#134=EDGE_CURVE('',#185,#182,#219,.T.);
#135=EDGE_CURVE('',#186,#187,#220,.T.);
#136=EDGE_CURVE('',#188,#187,#221,.T.);
#137=EDGE_CURVE('',#189,#188,#222,.T.);
#138=EDGE_CURVE('',#190,#189,#223,.T.);
#139=EDGE_CURVE('',#190,#191,#224,.F.);
#140=EDGE_CURVE('',#191,#192,#23,.T.);
#141=EDGE_CURVE('',#192,#193,#225,.T.);
#142=EDGE_CURVE('',#193,#194,#24,.T.);
#143=EDGE_CURVE('',#195,#194,#226,.T.);
#144=EDGE_CURVE('',#196,#195,#25,.T.);
#145=EDGE_CURVE('',#197,#196,#227,.T.);
#146=EDGE_CURVE('',#198,#197,#228,.T.);
#147=EDGE_CURVE('',#199,#198,#229,.T.);
#148=EDGE_CURVE('',#199,#200,#230,.T.);
#149=EDGE_CURVE('',#184,#200,#231,.T.);
#150=EDGE_CURVE('',#186,#183,#232,.T.);
#151=EDGE_CURVE('',#201,#200,#233,.T.);
#152=EDGE_CURVE('',#202,#199,#234,.T.);
#153=EDGE_CURVE('',#202,#201,#235,.T.);
#154=EDGE_CURVE('',#203,#187,#236,.T.);
#155=EDGE_CURVE('',#204,#186,#237,.T.);
#156=EDGE_CURVE('',#204,#203,#238,.T.);
#157=EDGE_CURVE('',#205,#206,#239,.T.);
#158=EDGE_CURVE('',#206,#193,#240,.T.);
#159=EDGE_CURVE('',#192,#205,#241,.F.);
#160=EDGE_CURVE('',#207,#208,#242,.T.);
#161=EDGE_CURVE('',#208,#206,#26,.F.);
#162=EDGE_CURVE('',#205,#209,#27,.F.);
#163=EDGE_CURVE('',#209,#210,#243,.T.);
#164=EDGE_CURVE('',#210,#211,#244,.T.);
#165=EDGE_CURVE('',#211,#212,#245,.T.);
#166=EDGE_CURVE('',#212,#203,#246,.T.);
#167=EDGE_CURVE('',#204,#182,#247,.T.);
#168=EDGE_CURVE('',#185,#201,#248,.T.);
#169=EDGE_CURVE('',#202,#213,#249,.T.);
#170=EDGE_CURVE('',#213,#214,#250,.T.);
#171=EDGE_CURVE('',#214,#215,#251,.T.);
#172=EDGE_CURVE('',#215,#207,#28,.F.);
#173=EDGE_CURVE('',#211,#189,#252,.T.);
#174=EDGE_CURVE('',#212,#188,#253,.T.);
#175=EDGE_CURVE('',#209,#191,#254,.T.);
#176=EDGE_CURVE('',#210,#190,#255,.T.);
#177=EDGE_CURVE('',#194,#208,#256,.F.);
#178=EDGE_CURVE('',#207,#195,#257,.T.);
#179=EDGE_CURVE('',#213,#198,#258,.T.);
#180=EDGE_CURVE('',#214,#197,#259,.T.);
#181=EDGE_CURVE('',#215,#196,#260,.T.);
#182=VERTEX_POINT('',#517);
#183=VERTEX_POINT('',#518);
#184=VERTEX_POINT('',#520);
#185=VERTEX_POINT('',#522);
#186=VERTEX_POINT('',#526);
#187=VERTEX_POINT('',#527);
#188=VERTEX_POINT('',#529);
#189=VERTEX_POINT('',#531);
#190=VERTEX_POINT('',#533);
#191=VERTEX_POINT('',#535);
#192=VERTEX_POINT('',#537);
#193=VERTEX_POINT('',#539);
#194=VERTEX_POINT('',#541);
#195=VERTEX_POINT('',#543);
#196=VERTEX_POINT('',#545);
#197=VERTEX_POINT('',#547);
#198=VERTEX_POINT('',#549);
#199=VERTEX_POINT('',#551);
#200=VERTEX_POINT('',#553);
#201=VERTEX_POINT('',#558);
#202=VERTEX_POINT('',#560);
#203=VERTEX_POINT('',#564);
#204=VERTEX_POINT('',#566);
#205=VERTEX_POINT('',#570);
#206=VERTEX_POINT('',#571);
#207=VERTEX_POINT('',#576);
#208=VERTEX_POINT('',#577);
#209=VERTEX_POINT('',#580);
#210=VERTEX_POINT('',#582);
#211=VERTEX_POINT('',#584);
#212=VERTEX_POINT('',#586);
#213=VERTEX_POINT('',#591);
#214=VERTEX_POINT('',#593);
#215=VERTEX_POINT('',#595);
#216=LINE('',#516,#261);
#217=LINE('',#519,#262);
#218=LINE('',#521,#263);
#219=LINE('',#523,#264);
#220=LINE('',#525,#265);
#221=LINE('',#528,#266);
#222=LINE('',#530,#267);
#223=LINE('',#532,#268);
#224=LINE('',#534,#269);
#225=LINE('',#538,#270);
#226=LINE('',#542,#271);
#227=LINE('',#546,#272);
#228=LINE('',#548,#273);
#229=LINE('',#550,#274);
#230=LINE('',#552,#275);
#231=LINE('',#554,#276);
#232=LINE('',#555,#277);
#233=LINE('',#557,#278);
#234=LINE('',#559,#279);
#235=LINE('',#561,#280);
#236=LINE('',#563,#281);
#237=LINE('',#565,#282);
#238=LINE('',#567,#283);
#239=LINE('',#569,#284);
#240=LINE('',#572,#285);
#241=LINE('',#573,#286);
#242=LINE('',#575,#287);
#243=LINE('',#581,#288);
#244=LINE('',#583,#289);
#245=LINE('',#585,#290);
#246=LINE('',#587,#291);
#247=LINE('',#588,#292);
#248=LINE('',#589,#293);
#249=LINE('',#590,#294);
#250=LINE('',#592,#295);
#251=LINE('',#594,#296);
#252=LINE('',#599,#297);
#253=LINE('',#600,#298);
#254=LINE('',#603,#299);
#255=LINE('',#604,#300);
#256=LINE('',#609,#301);
#257=LINE('',#610,#302);
#258=LINE('',#612,#303);
#259=LINE('',#614,#304);
#260=LINE('',#616,#305);
#261=VECTOR('',#421,1000.);
#262=VECTOR('',#422,1000.);
#263=VECTOR('',#423,1000.);
#264=VECTOR('',#424,1000.);
#265=VECTOR('',#427,1000.);
#266=VECTOR('',#428,1000.);
#267=VECTOR('',#429,1000.);
#268=VECTOR('',#430,1000.);
#269=VECTOR('',#431,1000.);
#270=VECTOR('',#434,1000.);
#271=VECTOR('',#437,1000.);
#272=VECTOR('',#440,1000.);
#273=VECTOR('',#441,1000.);
#274=VECTOR('',#442,1000.);
#275=VECTOR('',#443,1000.);
#276=VECTOR('',#444,1000.);
#277=VECTOR('',#445,1000.);
#278=VECTOR('',#448,1000.);
#279=VECTOR('',#449,1000.);
#280=VECTOR('',#450,1000.);
#281=VECTOR('',#453,1000.);
#282=VECTOR('',#454,1000.);
#283=VECTOR('',#455,1000.);
#284=VECTOR('',#458,1000.);
#285=VECTOR('',#459,1000.);
#286=VECTOR('',#460,1000.);
#287=VECTOR('',#463,1000.);
#288=VECTOR('',#468,1000.);
#289=VECTOR('',#469,1000.);
#290=VECTOR('',#470,1000.);
#291=VECTOR('',#471,1000.);
#292=VECTOR('',#472,1000.);
#293=VECTOR('',#473,1000.);
#294=VECTOR('',#474,1000.);
#295=VECTOR('',#475,1000.);
#296=VECTOR('',#476,1000.);
#297=VECTOR('',#483,1000.);
#298=VECTOR('',#484,1000.);
#299=VECTOR('',#489,1000.);
#300=VECTOR('',#490,1000.);
#301=VECTOR('',#499,1000.);
#302=VECTOR('',#500,1000.);
#303=VECTOR('',#503,1000.);
#304=VECTOR('',#506,1000.);
#305=VECTOR('',#509,1000.);
#306=EDGE_LOOP('',(#29,#30,#31,#32));
#307=EDGE_LOOP('',(#33,#34,#35,#36,#37,#38,#39,#40,#41,#42,#43,#44,#45,
#46,#47,#48,#49));
#308=EDGE_LOOP('',(#50,#51,#52,#53));
#309=EDGE_LOOP('',(#54,#55,#56,#57));
#310=EDGE_LOOP('',(#58,#59,#60,#61));
#311=EDGE_LOOP('',(#62,#63,#64,#65,#66,#67,#68,#69,#70,#71,#72,#73,#74,
#75,#76,#77,#78));
#312=EDGE_LOOP('',(#79,#80,#81,#82));
#313=EDGE_LOOP('',(#83,#84,#85,#86));
#314=EDGE_LOOP('',(#87,#88,#89,#90));
#315=EDGE_LOOP('',(#91,#92,#93,#94));
#316=EDGE_LOOP('',(#95,#96,#97,#98));
#317=EDGE_LOOP('',(#99,#100,#101,#102));
#318=EDGE_LOOP('',(#103,#104,#105,#106));
#319=EDGE_LOOP('',(#107,#108,#109,#110));
#320=EDGE_LOOP('',(#111,#112,#113,#114));
#321=EDGE_LOOP('',(#115,#116,#117,#118));
#322=EDGE_LOOP('',(#119,#120,#121,#122));
#323=EDGE_LOOP('',(#123,#124,#125,#126));
#324=EDGE_LOOP('',(#127,#128,#129,#130));
#325=FACE_BOUND('',#306,.T.);
#326=FACE_BOUND('',#307,.T.);
#327=FACE_BOUND('',#308,.T.);
#328=FACE_BOUND('',#309,.T.);
#329=FACE_BOUND('',#310,.T.);
#330=FACE_BOUND('',#311,.T.);
#331=FACE_BOUND('',#312,.T.);
#332=FACE_BOUND('',#313,.T.);
#333=FACE_BOUND('',#314,.T.);
#334=FACE_BOUND('',#315,.T.);
#335=FACE_BOUND('',#316,.T.);
#336=FACE_BOUND('',#317,.T.);
#337=FACE_BOUND('',#318,.T.);
#338=FACE_BOUND('',#319,.T.);
#339=FACE_BOUND('',#320,.T.);
#340=FACE_BOUND('',#321,.T.);
#341=FACE_BOUND('',#322,.T.);
#342=FACE_BOUND('',#323,.T.);
#343=FACE_BOUND('',#324,.T.);
#344=PLANE('',#392);
#345=PLANE('',#393);
#346=PLANE('',#397);
#347=PLANE('',#398);
#348=PLANE('',#399);
#349=PLANE('',#400);
#350=PLANE('',#404);
#351=PLANE('',#405);
#352=PLANE('',#406);
#353=PLANE('',#407);
#354=PLANE('',#408);
#355=PLANE('',#409);
#356=PLANE('',#411);
#357=PLANE('',#412);
#358=PLANE('',#413);
#359=PLANE('',#414);
#360=ADVANCED_FACE('',(#325),#344,.F.);
#361=ADVANCED_FACE('',(#326),#345,.T.);
#362=ADVANCED_FACE('',(#327),#346,.F.);
#363=ADVANCED_FACE('',(#328),#347,.F.);
#364=ADVANCED_FACE('',(#329),#348,.F.);
#365=ADVANCED_FACE('',(#330),#349,.F.);
#366=ADVANCED_FACE('',(#331),#350,.F.);
#367=ADVANCED_FACE('',(#332),#351,.F.);
#368=ADVANCED_FACE('',(#333),#352,.F.);
#369=ADVANCED_FACE('',(#334),#353,.F.);
#370=ADVANCED_FACE('',(#335),#354,.F.);
#371=ADVANCED_FACE('',(#336),#355,.F.);
#372=ADVANCED_FACE('',(#337),#20,.T.);
#373=ADVANCED_FACE('',(#338),#356,.F.);
#374=ADVANCED_FACE('',(#339),#357,.F.);
#375=ADVANCED_FACE('',(#340),#358,.F.);
#376=ADVANCED_FACE('',(#341),#359,.F.);
#377=ADVANCED_FACE('',(#342),#21,.T.);
#378=ADVANCED_FACE('',(#343),#22,.T.);
#379=CLOSED_SHELL('',(#360,#361,#362,#363,#364,#365,#366,#367,#368,#369,
#370,#371,#372,#373,#374,#375,#376,#377,#378));
#380=STYLED_ITEM('',(#381),#388);
#381=PRESENTATION_STYLE_ASSIGNMENT((#382));
#382=SURFACE_STYLE_USAGE(.BOTH.,#383);
#383=SURFACE_SIDE_STYLE('',(#384));
#384=SURFACE_STYLE_FILL_AREA(#385);
#385=FILL_AREA_STYLE('',(#386));
#386=FILL_AREA_STYLE_COLOUR('',#387);
#387=COLOUR_RGB('',0.752941191196442,0.752941191196442,0.752941191196442);
#388=MANIFOLD_SOLID_BREP('',#379);
#389=SHAPE_DEFINITION_REPRESENTATION(#625,#390);
#390=SHAPE_REPRESENTATION('6CSTM2.5_CO',(#391),#620);
#391=AXIS2_PLACEMENT_3D('',#514,#417,#418);
#392=AXIS2_PLACEMENT_3D('',#515,#419,#420);
#393=AXIS2_PLACEMENT_3D('',#524,#425,#426);
#394=AXIS2_PLACEMENT_3D('',#536,#432,#433);
#395=AXIS2_PLACEMENT_3D('',#540,#435,#436);
#396=AXIS2_PLACEMENT_3D('',#544,#438,#439);
#397=AXIS2_PLACEMENT_3D('',#556,#446,#447);
#398=AXIS2_PLACEMENT_3D('',#562,#451,#452);
#399=AXIS2_PLACEMENT_3D('',#568,#456,#457);
#400=AXIS2_PLACEMENT_3D('',#574,#461,#462);
#401=AXIS2_PLACEMENT_3D('',#578,#464,#465);
#402=AXIS2_PLACEMENT_3D('',#579,#466,#467);
#403=AXIS2_PLACEMENT_3D('',#596,#477,#478);
#404=AXIS2_PLACEMENT_3D('',#597,#479,#480);
#405=AXIS2_PLACEMENT_3D('',#598,#481,#482);
#406=AXIS2_PLACEMENT_3D('',#601,#485,#486);
#407=AXIS2_PLACEMENT_3D('',#602,#487,#488);
#408=AXIS2_PLACEMENT_3D('',#605,#491,#492);
#409=AXIS2_PLACEMENT_3D('',#606,#493,#494);
#410=AXIS2_PLACEMENT_3D('',#607,#495,#496);
#411=AXIS2_PLACEMENT_3D('',#608,#497,#498);
#412=AXIS2_PLACEMENT_3D('',#611,#501,#502);
#413=AXIS2_PLACEMENT_3D('',#613,#504,#505);
#414=AXIS2_PLACEMENT_3D('',#615,#507,#508);
#415=AXIS2_PLACEMENT_3D('',#617,#510,#511);
#416=AXIS2_PLACEMENT_3D('',#618,#512,#513);
#417=DIRECTION('',(0.,0.,1.));
#418=DIRECTION('',(1.,0.,0.));
#419=DIRECTION('',(0.,0.,-1.));
#420=DIRECTION('',(-1.,0.,0.));
#421=DIRECTION('',(1.,-5.94083382183838E-17,0.));
#422=DIRECTION('',(-6.12303176911189E-17,-1.,0.));
#423=DIRECTION('',(1.,5.94083382183838E-17,0.));
#424=DIRECTION('',(-6.12303176911189E-17,-1.,0.));
#425=DIRECTION('',(1.,-6.12303176911189E-17,0.));
#426=DIRECTION('',(6.12303176911189E-17,1.,0.));
#427=DIRECTION('',(9.65615177639108E-33,1.5770213417971E-16,-1.));
#428=DIRECTION('',(-5.94083382183838E-17,-1.,-1.02167065159209E-15));
#429=DIRECTION('',(-4.20080388132428E-17,-0.707106781186542,-0.707106781186553));
#430=DIRECTION('',(-5.94083382183838E-17,-1.,3.3042351923361E-16));
#431=DIRECTION('',(0.,0.,1.));
#432=DIRECTION('',(1.,-6.12303176911189E-17,0.));
#433=DIRECTION('',(6.12303176911189E-17,1.,0.));
#434=DIRECTION('',(6.12303176911189E-17,1.,3.80213364597656E-16));
#435=DIRECTION('',(1.,-6.12303176911189E-17,0.));
#436=DIRECTION('',(6.12303176911189E-17,1.,0.));
#437=DIRECTION('',(-3.85400426193933E-32,-6.48731201295699E-16,-1.));
#438=DIRECTION('',(-1.,5.94083382183838E-17,0.));
#439=DIRECTION('',(-5.94083382183838E-17,-1.,0.));
#440=DIRECTION('',(5.82809400152661E-17,0.981022896163609,-0.193891921447917));
#441=DIRECTION('',(0.,0.,-1.));
#442=DIRECTION('',(-5.14491300937383E-17,-0.866025403784438,-0.500000000000001));
#443=DIRECTION('',(-9.65615177639108E-33,-1.5770213417971E-16,1.));
#444=DIRECTION('',(-4.20280857881816E-17,0.707444224978777,-0.706769176283302));
#445=DIRECTION('',(4.20280857881816E-17,0.707444224978777,0.706769176283302));
#446=DIRECTION('',(0.,-1.,-1.5770213417971E-16));
#447=DIRECTION('',(0.,1.5770213417971E-16,-1.));
#448=DIRECTION('',(1.,5.94083382183838E-17,0.));
#449=DIRECTION('',(1.,-5.93858666513117E-17,0.));
#450=DIRECTION('',(-9.65615177639108E-33,-1.5770213417971E-16,1.));
#451=DIRECTION('',(0.,1.,1.5770213417971E-16));
#452=DIRECTION('',(0.,-1.5770213417971E-16,1.));
#453=DIRECTION('',(1.,-5.94083382183838E-17,0.));
#454=DIRECTION('',(1.,-5.94083382183838E-17,0.));
#455=DIRECTION('',(9.65615177639108E-33,1.5770213417971E-16,-1.));
#456=DIRECTION('',(0.,-3.80213364597656E-16,1.));
#457=DIRECTION('',(0.,-1.,-3.80213364597656E-16));
#458=DIRECTION('',(6.12303176911189E-17,1.,3.80213364597656E-16));
#459=DIRECTION('',(1.,-5.93858666513117E-17,-2.2579300169043E-32));
#460=DIRECTION('',(1.,-5.94083382183838E-17,-2.25878441591672E-32));
#461=DIRECTION('',(1.,-6.12303176911189E-17,0.));
#462=DIRECTION('',(6.12303176911189E-17,1.,0.));
#463=DIRECTION('',(-3.97220175514768E-32,-6.48731201295699E-16,-1.));
#464=DIRECTION('',(1.,-6.12303176911189E-17,0.));
#465=DIRECTION('',(6.12303176911189E-17,1.,0.));
#466=DIRECTION('',(1.,-6.12303176911189E-17,0.));
#467=DIRECTION('',(6.12303176911189E-17,1.,0.));
#468=DIRECTION('',(0.,0.,1.));
#469=DIRECTION('',(-6.12303176911189E-17,-1.,3.3042351923361E-16));
#470=DIRECTION('',(-4.32963728535964E-17,-0.707106781186542,-0.707106781186553));
#471=DIRECTION('',(-6.12303176911189E-17,-1.,-1.02167065159209E-15));
#472=DIRECTION('',(4.33170346441979E-17,0.707444224978778,0.706769176283301));
#473=DIRECTION('',(4.33170346441979E-17,0.707444224978778,-0.706769176283301));
#474=DIRECTION('',(-5.30270106023006E-17,-0.866025403784438,-0.500000000000001));
#475=DIRECTION('',(0.,0.,-1.));
#476=DIRECTION('',(6.00683435943593E-17,0.981022896163609,-0.193891921447917));
#477=DIRECTION('',(1.,-6.12303176911189E-17,0.));
#478=DIRECTION('',(6.12303176911189E-17,1.,0.));
#479=DIRECTION('',(4.19879822669669E-17,0.706769176283302,-0.707444224978777));
#480=DIRECTION('',(0.,0.707444224978777,0.706769176283302));
#481=DIRECTION('',(-4.20080388132435E-17,-0.707106781186553,0.707106781186542));
#482=DIRECTION('',(0.,-0.707106781186542,-0.707106781186553));
#483=DIRECTION('',(1.,-5.94083382183838E-17,0.));
#484=DIRECTION('',(1.,-5.94083382183838E-17,0.));
#485=DIRECTION('',(-6.06957556175792E-32,-1.02167065159209E-15,1.));
#486=DIRECTION('',(0.,-1.,-1.02167065159209E-15));
#487=DIRECTION('',(5.94083382183838E-17,1.,0.));
#488=DIRECTION('',(-1.,5.94083382183838E-17,0.));
#489=DIRECTION('',(1.,-5.94083382183838E-17,-2.25878441591672E-32));
#490=DIRECTION('',(1.,-5.94083382183838E-17,0.));
#491=DIRECTION('',(1.96299121859389E-32,3.3042351923361E-16,1.));
#492=DIRECTION('',(0.,-1.,3.3042351923361E-16));
#493=DIRECTION('',(4.19879822669669E-17,-0.706769176283302,-0.707444224978777));
#494=DIRECTION('',(0.,0.707444224978777,-0.706769176283302));
#495=DIRECTION('',(1.,-5.94083382183838E-17,-2.25878441591672E-32));
#496=DIRECTION('',(5.94083382183838E-17,1.,0.));
#497=DIRECTION('',(-5.93858666513117E-17,-1.,6.48731201295699E-16));
#498=DIRECTION('',(0.,-6.48731201295699E-16,-1.));
#499=DIRECTION('',(1.,-5.93858666513117E-17,-2.2579300169043E-32));
#500=DIRECTION('',(1.,-5.93858666513117E-17,0.));
#501=DIRECTION('',(-2.96929333256559E-17,-0.500000000000001,0.866025403784438));
#502=DIRECTION('',(0.,-0.866025403784438,-0.500000000000001));
#503=DIRECTION('',(1.,-5.93858666513117E-17,0.));
#504=DIRECTION('',(-5.93858666513117E-17,-1.,0.));
#505=DIRECTION('',(1.,-5.93858666513117E-17,0.));
#506=DIRECTION('',(1.,-5.93858666513117E-17,0.));
#507=DIRECTION('',(-1.15144397918726E-17,-0.193891921447917,-0.981022896163609));
#508=DIRECTION('',(0.,0.981022896163609,-0.193891921447917));
#509=DIRECTION('',(1.,-5.93858666513117E-17,0.));
#510=DIRECTION('',(1.,-5.93858666513117E-17,0.));
#511=DIRECTION('',(5.93858666513117E-17,1.,0.));
#512=DIRECTION('',(1.,-5.93858666513117E-17,-2.2579300169043E-32));
#513=DIRECTION('',(5.93858666513117E-17,1.,0.));
#514=CARTESIAN_POINT('',(0.,0.,0.));
#515=CARTESIAN_POINT('',(3.,18.25,22.));
#516=CARTESIAN_POINT('',(-54.4826060647915,-12.7491251705207,22.));
#517=CARTESIAN_POINT('',(-3.,-12.7491251705207,22.));
#518=CARTESIAN_POINT('',(3.,-12.7491251705207,22.));
#519=CARTESIAN_POINT('',(3.,18.25,22.));
#520=CARTESIAN_POINT('',(3.,12.7491251705207,22.));
#521=CARTESIAN_POINT('',(-54.4826060647915,12.7491251705207,22.));
#522=CARTESIAN_POINT('',(-3.,12.7491251705207,22.));
#523=CARTESIAN_POINT('',(-3.,18.25,22.));
#524=CARTESIAN_POINT('',(3.,18.25,22.));
#525=CARTESIAN_POINT('',(3.,-18.25,22.));
#526=CARTESIAN_POINT('',(3.,-18.25,16.5043741473962));
#527=CARTESIAN_POINT('',(3.,-18.25,-9.49931605398464));
#528=CARTESIAN_POINT('',(3.,-11.4582869434546,-9.49931605398463));
#529=CARTESIAN_POINT('',(3.,-11.4582869434546,-9.49931605398463));
#530=CARTESIAN_POINT('',(3.,-10.2082869434546,-8.24931605398464));
#531=CARTESIAN_POINT('',(3.,-10.2082869434546,-8.24931605398464));
#532=CARTESIAN_POINT('',(3.,-4.95828694345354,-8.24931605398464));
#533=CARTESIAN_POINT('',(3.,-4.95828694345354,-8.24931605398464));
#534=CARTESIAN_POINT('',(3.,-4.95828694345354,22.));
#535=CARTESIAN_POINT('',(3.,-4.95828694345354,-20.7));
#536=CARTESIAN_POINT('',(3.,-3.65828694345354,-20.7));
#537=CARTESIAN_POINT('',(3.,-3.65828694345354,-22.));
#538=CARTESIAN_POINT('',(3.,-18.25,-22.));
#539=CARTESIAN_POINT('',(3.,12.0417130565453,-22.));
#540=CARTESIAN_POINT('',(3.,12.0417130565453,-20.5));
#541=CARTESIAN_POINT('',(3.,13.5417130565453,-20.5));
#542=CARTESIAN_POINT('',(3.,13.5417130565453,-19.3259749607972));
#543=CARTESIAN_POINT('',(3.,13.5417130565453,-19.3259749607972));
#544=CARTESIAN_POINT('',(3.,12.0417130565453,-19.3259749607972));
#545=CARTESIAN_POINT('',(3.,12.3325509387172,-17.8544406165518));
#546=CARTESIAN_POINT('',(3.,11.0577007560668,-17.6024759045772));
#547=CARTESIAN_POINT('',(3.,11.0577007560668,-17.6024759045772));
#548=CARTESIAN_POINT('',(3.,11.0577007560668,-16.0024759045772));
#549=CARTESIAN_POINT('',(3.,11.0577007560668,-16.0024759045772));
#550=CARTESIAN_POINT('',(3.,18.25,-11.85));
#551=CARTESIAN_POINT('',(3.,18.25,-11.85));
#552=CARTESIAN_POINT('',(3.,18.25,-22.));
#553=CARTESIAN_POINT('',(3.,18.25,16.5043741473962));
#554=CARTESIAN_POINT('',(3.,17.4443027660219,17.3093025789054));
#555=CARTESIAN_POINT('',(3.,-18.25,16.5043741473962));
#556=CARTESIAN_POINT('',(3.,18.25,-22.));
#557=CARTESIAN_POINT('',(-54.4826060647915,18.25,16.5043741473962));
#558=CARTESIAN_POINT('',(-3.,18.25,16.5043741473962));
#559=CARTESIAN_POINT('',(-54.4826060647915,18.25,-11.85));
#560=CARTESIAN_POINT('',(-3.,18.25,-11.85));
#561=CARTESIAN_POINT('',(-3.,18.25,-22.));
#562=CARTESIAN_POINT('',(3.,-18.25,22.));
#563=CARTESIAN_POINT('',(-54.4826060647915,-18.25,-9.49931605398464));
#564=CARTESIAN_POINT('',(-3.,-18.25,-9.49931605398464));
#565=CARTESIAN_POINT('',(-54.4826060647915,-18.25,16.5043741473962));
#566=CARTESIAN_POINT('',(-3.,-18.25,16.5043741473962));
#567=CARTESIAN_POINT('',(-3.,-18.25,22.));
#568=CARTESIAN_POINT('',(3.,-18.25,-22.));
#569=CARTESIAN_POINT('',(-3.,-18.25,-22.));
#570=CARTESIAN_POINT('',(-3.,-3.65828694345354,-22.));
#571=CARTESIAN_POINT('',(-3.,12.0417130565453,-22.));
#572=CARTESIAN_POINT('',(3.,12.0417130565453,-22.));
#573=CARTESIAN_POINT('',(3.,-3.65828694345354,-22.));
#574=CARTESIAN_POINT('',(-3.,18.25,22.));
#575=CARTESIAN_POINT('',(-3.,13.5417130565453,22.));
#576=CARTESIAN_POINT('',(-3.,13.5417130565453,-19.3259749607972));
#577=CARTESIAN_POINT('',(-3.,13.5417130565453,-20.5));
#578=CARTESIAN_POINT('',(-3.,12.0417130565453,-20.5));
#579=CARTESIAN_POINT('',(-3.,-3.65828694345354,-20.7));
#580=CARTESIAN_POINT('',(-3.,-4.95828694345354,-20.7));
#581=CARTESIAN_POINT('',(-3.,-4.95828694345354,22.));
#582=CARTESIAN_POINT('',(-3.,-4.95828694345354,-8.24931605398464));
#583=CARTESIAN_POINT('',(-3.,18.25,-8.24931605398465));
#584=CARTESIAN_POINT('',(-3.,-10.2082869434546,-8.24931605398464));
#585=CARTESIAN_POINT('',(-3.,19.1455145552648,21.1044854447352));
#586=CARTESIAN_POINT('',(-3.,-11.4582869434546,-9.49931605398463));
#587=CARTESIAN_POINT('',(-3.,18.25,-9.49931605398461));
#588=CARTESIAN_POINT('',(-3.,2.76523427228656,37.4995555222532));
#589=CARTESIAN_POINT('',(-3.,15.502188325851,19.2495638386092));
#590=CARTESIAN_POINT('',(-3.,32.9074799590516,-3.38749999999999));
#591=CARTESIAN_POINT('',(-3.,11.0577007560668,-16.0024759045772));
#592=CARTESIAN_POINT('',(-3.,11.0577007560668,22.));
#593=CARTESIAN_POINT('',(-3.,11.0577007560668,-17.6024759045772));
#594=CARTESIAN_POINT('',(-3.,10.446729592037,-17.4817219717116));
#595=CARTESIAN_POINT('',(-3.,12.3325509387172,-17.8544406165518));
#596=CARTESIAN_POINT('',(-3.,12.0417130565453,-19.3259749607972));
#597=CARTESIAN_POINT('',(-54.4826060647915,-18.25,16.5043741473962));
#598=CARTESIAN_POINT('',(-54.4826060647915,-10.2082869434546,-8.24931605398464));
#599=CARTESIAN_POINT('',(-54.4826060647915,-10.2082869434546,-8.24931605398464));
#600=CARTESIAN_POINT('',(-54.4826060647915,-11.4582869434546,-9.49931605398463));
#601=CARTESIAN_POINT('',(-54.4826060647915,-11.4582869434546,-9.49931605398463));
#602=CARTESIAN_POINT('',(-54.4826060647915,-4.95828694345354,-22.));
#603=CARTESIAN_POINT('',(-54.4826060647915,-4.95828694345354,-20.7));
#604=CARTESIAN_POINT('',(-54.4826060647915,-4.95828694345354,-8.24931605398464));
#605=CARTESIAN_POINT('',(-54.4826060647915,-4.95828694345354,-8.24931605398464));
#606=CARTESIAN_POINT('',(-54.4826060647915,17.4443027660219,17.3093025789054));
#607=CARTESIAN_POINT('',(-54.4826060647915,-3.65828694345354,-20.7));
#608=CARTESIAN_POINT('',(-54.4826060647915,13.5417130565453,-19.3259749607972));
#609=CARTESIAN_POINT('',(-54.4826060647915,13.5417130565453,-20.5));
#610=CARTESIAN_POINT('',(-54.4826060647915,13.5417130565453,-19.3259749607972));
#611=CARTESIAN_POINT('',(-54.4826060647915,18.25,-11.85));
#612=CARTESIAN_POINT('',(-54.4826060647915,11.0577007560668,-16.0024759045772));
#613=CARTESIAN_POINT('',(-54.4826060647915,11.0577007560668,-16.0024759045772));
#614=CARTESIAN_POINT('',(-54.4826060647915,11.0577007560668,-17.6024759045772));
#615=CARTESIAN_POINT('',(-54.4826060647915,11.0577007560668,-17.6024759045772));
#616=CARTESIAN_POINT('',(-54.4826060647915,12.3325509387172,-17.8544406165518));
#617=CARTESIAN_POINT('',(-54.4826060647915,12.0417130565453,-19.3259749607972));
#618=CARTESIAN_POINT('',(3.,12.0417130565453,-20.5));
#619=MECHANICAL_DESIGN_GEOMETRIC_PRESENTATION_REPRESENTATION('',(#380),
#620);
#620=(
GEOMETRIC_REPRESENTATION_CONTEXT(3)
GLOBAL_UNCERTAINTY_ASSIGNED_CONTEXT((#621))
GLOBAL_UNIT_ASSIGNED_CONTEXT((#624,#623,#622))
REPRESENTATION_CONTEXT('6CSTM2.5_CO','TOP_LEVEL_ASSEMBLY_PART')
);
#621=UNCERTAINTY_MEASURE_WITH_UNIT(LENGTH_MEASURE(0.005),#624,
'DISTANCE_ACCURACY_VALUE','Maximum Tolerance applied to model');
#622=(
NAMED_UNIT(*)
SI_UNIT($,.STERADIAN.)
SOLID_ANGLE_UNIT()
);
#623=(
NAMED_UNIT(*)
PLANE_ANGLE_UNIT()
SI_UNIT($,.RADIAN.)
);
#624=(
LENGTH_UNIT()
NAMED_UNIT(*)
SI_UNIT(.MILLI.,.METRE.)
);
#625=PRODUCT_DEFINITION_SHAPE('','',#626);
#626=PRODUCT_DEFINITION('','',#628,#627);
#627=PRODUCT_DEFINITION_CONTEXT('',#634,'design');
#628=PRODUCT_DEFINITION_FORMATION_WITH_SPECIFIED_SOURCE('','',#630,
 .NOT_KNOWN.);
#629=PRODUCT_RELATED_PRODUCT_CATEGORY('','',(#630));
#630=PRODUCT('6CSTM2.5_CO','6CSTM2.5_CO','6CSTM2.5_CO',(#632));
#631=PRODUCT_CATEGORY('','');
#632=PRODUCT_CONTEXT('',#634,'mechanical');
#633=APPLICATION_PROTOCOL_DEFINITION('international standard',
'automotive_design',2010,#634);
#634=APPLICATION_CONTEXT(
'core data for automotive mechanical design processes');
ENDSEC;
END-ISO-10303-21;
