ISO-10303-21;
HEADER;
/* Generated by software containing ST-Developer
 * from STEP Tools, Inc. (www.steptools.com) 
 */
/* OPTION: strings as raw bytes, not using required /X/ escapes */

FILE_DESCRIPTION(
/* description */ ('Unknown'),
/* implementation_level */ '2;1');

FILE_NAME(
/* name */ '6MCT1.5H',
/* time_stamp */ '2016-10-14T10:09:46+06:00',
/* author */ ('Unknown'),
/* organization */ ('Unknown'),
/* preprocessor_version */ 'ST-DEVELOPER v16',
/* originating_system */ 'DEX',
/* authorisation */ $);

FILE_SCHEMA (('AUTOMOTIVE_DESIGN {1 0 10303 214 3 1 1}'));
ENDSEC;

DATA;
#10=PROPERTY_DEFINITION_REPRESENTATION(#14,#12);
#11=PROPERTY_DEFINITION_REPRESENTATION(#15,#13);
#12=REPRESENTATION('',(#16),#527);
#13=REPRESENTATION('',(#17),#527);
#14=PROPERTY_DEFINITION('pmi validation property','',#532);
#15=PROPERTY_DEFINITION('pmi validation property','',#532);
#16=VALUE_REPRESENTATION_ITEM('number of annotations',COUNT_MEASURE(0.));
#17=VALUE_REPRESENTATION_ITEM('number of views',COUNT_MEASURE(0.));
#18=SHAPE_REPRESENTATION_RELATIONSHIP('','',#321,#19);
#19=ADVANCED_BREP_SHAPE_REPRESENTATION('',(#319),#527);
#20=CYLINDRICAL_SURFACE('',#331,0.5);
#21=CYLINDRICAL_SURFACE('',#333,0.5);
#22=CYLINDRICAL_SURFACE('',#336,0.5);
#23=CYLINDRICAL_SURFACE('',#339,0.5);
#24=CYLINDRICAL_SURFACE('',#342,0.5);
#25=CYLINDRICAL_SURFACE('',#348,1.);
#26=CIRCLE('',#324,0.999999999999999);
#27=CIRCLE('',#325,0.5);
#28=CIRCLE('',#326,0.5);
#29=CIRCLE('',#327,0.5);
#30=CIRCLE('',#328,0.5);
#31=CIRCLE('',#329,0.5);
#32=CIRCLE('',#332,0.5);
#33=CIRCLE('',#334,0.5);
#34=CIRCLE('',#337,0.5);
#35=CIRCLE('',#340,0.5);
#36=CIRCLE('',#343,0.5);
#37=CIRCLE('',#345,1.);
#38=ORIENTED_EDGE('',*,*,#122,.T.);
#39=ORIENTED_EDGE('',*,*,#123,.T.);
#40=ORIENTED_EDGE('',*,*,#124,.T.);
#41=ORIENTED_EDGE('',*,*,#125,.F.);
#42=ORIENTED_EDGE('',*,*,#126,.F.);
#43=ORIENTED_EDGE('',*,*,#127,.T.);
#44=ORIENTED_EDGE('',*,*,#128,.F.);
#45=ORIENTED_EDGE('',*,*,#129,.T.);
#46=ORIENTED_EDGE('',*,*,#130,.F.);
#47=ORIENTED_EDGE('',*,*,#131,.T.);
#48=ORIENTED_EDGE('',*,*,#132,.F.);
#49=ORIENTED_EDGE('',*,*,#133,.T.);
#50=ORIENTED_EDGE('',*,*,#134,.F.);
#51=ORIENTED_EDGE('',*,*,#135,.T.);
#52=ORIENTED_EDGE('',*,*,#136,.F.);
#53=ORIENTED_EDGE('',*,*,#137,.F.);
#54=ORIENTED_EDGE('',*,*,#138,.T.);
#55=ORIENTED_EDGE('',*,*,#126,.T.);
#56=ORIENTED_EDGE('',*,*,#139,.F.);
#57=ORIENTED_EDGE('',*,*,#140,.F.);
#58=ORIENTED_EDGE('',*,*,#135,.F.);
#59=ORIENTED_EDGE('',*,*,#141,.F.);
#60=ORIENTED_EDGE('',*,*,#142,.F.);
#61=ORIENTED_EDGE('',*,*,#143,.F.);
#62=ORIENTED_EDGE('',*,*,#133,.F.);
#63=ORIENTED_EDGE('',*,*,#144,.F.);
#64=ORIENTED_EDGE('',*,*,#145,.T.);
#65=ORIENTED_EDGE('',*,*,#144,.T.);
#66=ORIENTED_EDGE('',*,*,#132,.T.);
#67=ORIENTED_EDGE('',*,*,#146,.T.);
#68=ORIENTED_EDGE('',*,*,#147,.F.);
#69=ORIENTED_EDGE('',*,*,#146,.F.);
#70=ORIENTED_EDGE('',*,*,#131,.F.);
#71=ORIENTED_EDGE('',*,*,#148,.F.);
#72=ORIENTED_EDGE('',*,*,#130,.T.);
#73=ORIENTED_EDGE('',*,*,#149,.T.);
#74=ORIENTED_EDGE('',*,*,#150,.F.);
#75=ORIENTED_EDGE('',*,*,#148,.T.);
#76=ORIENTED_EDGE('',*,*,#151,.F.);
#77=ORIENTED_EDGE('',*,*,#149,.F.);
#78=ORIENTED_EDGE('',*,*,#129,.F.);
#79=ORIENTED_EDGE('',*,*,#152,.F.);
#80=ORIENTED_EDGE('',*,*,#128,.T.);
#81=ORIENTED_EDGE('',*,*,#153,.T.);
#82=ORIENTED_EDGE('',*,*,#154,.T.);
#83=ORIENTED_EDGE('',*,*,#152,.T.);
#84=ORIENTED_EDGE('',*,*,#155,.F.);
#85=ORIENTED_EDGE('',*,*,#153,.F.);
#86=ORIENTED_EDGE('',*,*,#127,.F.);
#87=ORIENTED_EDGE('',*,*,#138,.F.);
#88=ORIENTED_EDGE('',*,*,#156,.T.);
#89=ORIENTED_EDGE('',*,*,#157,.F.);
#90=ORIENTED_EDGE('',*,*,#158,.T.);
#91=ORIENTED_EDGE('',*,*,#159,.T.);
#92=ORIENTED_EDGE('',*,*,#139,.T.);
#93=ORIENTED_EDGE('',*,*,#160,.T.);
#94=ORIENTED_EDGE('',*,*,#142,.T.);
#95=ORIENTED_EDGE('',*,*,#145,.F.);
#96=ORIENTED_EDGE('',*,*,#147,.T.);
#97=ORIENTED_EDGE('',*,*,#150,.T.);
#98=ORIENTED_EDGE('',*,*,#151,.T.);
#99=ORIENTED_EDGE('',*,*,#154,.F.);
#100=ORIENTED_EDGE('',*,*,#155,.T.);
#101=ORIENTED_EDGE('',*,*,#137,.T.);
#102=ORIENTED_EDGE('',*,*,#125,.T.);
#103=ORIENTED_EDGE('',*,*,#161,.T.);
#104=ORIENTED_EDGE('',*,*,#156,.F.);
#105=ORIENTED_EDGE('',*,*,#136,.T.);
#106=ORIENTED_EDGE('',*,*,#134,.T.);
#107=ORIENTED_EDGE('',*,*,#143,.T.);
#108=ORIENTED_EDGE('',*,*,#160,.F.);
#109=ORIENTED_EDGE('',*,*,#141,.T.);
#110=ORIENTED_EDGE('',*,*,#158,.F.);
#111=ORIENTED_EDGE('',*,*,#162,.F.);
#112=ORIENTED_EDGE('',*,*,#123,.F.);
#113=ORIENTED_EDGE('',*,*,#163,.F.);
#114=ORIENTED_EDGE('',*,*,#163,.T.);
#115=ORIENTED_EDGE('',*,*,#122,.F.);
#116=ORIENTED_EDGE('',*,*,#140,.T.);
#117=ORIENTED_EDGE('',*,*,#159,.F.);
#118=ORIENTED_EDGE('',*,*,#161,.F.);
#119=ORIENTED_EDGE('',*,*,#124,.F.);
#120=ORIENTED_EDGE('',*,*,#162,.T.);
#121=ORIENTED_EDGE('',*,*,#157,.T.);
#122=EDGE_CURVE('',#164,#165,#192,.T.);
#123=EDGE_CURVE('',#165,#166,#26,.T.);
#124=EDGE_CURVE('',#166,#167,#193,.T.);
#125=EDGE_CURVE('',#168,#167,#194,.T.);
#126=EDGE_CURVE('',#169,#168,#195,.T.);
#127=EDGE_CURVE('',#169,#170,#27,.F.);
#128=EDGE_CURVE('',#171,#170,#196,.T.);
#129=EDGE_CURVE('',#171,#172,#28,.F.);
#130=EDGE_CURVE('',#173,#172,#197,.T.);
#131=EDGE_CURVE('',#173,#174,#29,.F.);
#132=EDGE_CURVE('',#175,#174,#198,.T.);
#133=EDGE_CURVE('',#175,#176,#30,.F.);
#134=EDGE_CURVE('',#177,#176,#199,.T.);
#135=EDGE_CURVE('',#177,#164,#31,.F.);
#136=EDGE_CURVE('',#178,#168,#200,.T.);
#137=EDGE_CURVE('',#179,#178,#201,.T.);
#138=EDGE_CURVE('',#179,#169,#202,.T.);
#139=EDGE_CURVE('',#180,#181,#32,.T.);
#140=EDGE_CURVE('',#164,#180,#203,.F.);
#141=EDGE_CURVE('',#181,#177,#204,.T.);
#142=EDGE_CURVE('',#182,#183,#33,.T.);
#143=EDGE_CURVE('',#176,#182,#205,.F.);
#144=EDGE_CURVE('',#183,#175,#206,.T.);
#145=EDGE_CURVE('',#184,#183,#207,.T.);
#146=EDGE_CURVE('',#174,#184,#208,.F.);
#147=EDGE_CURVE('',#184,#185,#34,.T.);
#148=EDGE_CURVE('',#185,#173,#209,.T.);
#149=EDGE_CURVE('',#172,#186,#210,.F.);
#150=EDGE_CURVE('',#185,#186,#211,.T.);
#151=EDGE_CURVE('',#186,#187,#35,.T.);
#152=EDGE_CURVE('',#187,#171,#212,.T.);
#153=EDGE_CURVE('',#170,#188,#213,.F.);
#154=EDGE_CURVE('',#188,#187,#214,.T.);
#155=EDGE_CURVE('',#188,#179,#36,.T.);
#156=EDGE_CURVE('',#178,#189,#215,.T.);
#157=EDGE_CURVE('',#190,#189,#216,.F.);
#158=EDGE_CURVE('',#190,#191,#37,.F.);
#159=EDGE_CURVE('',#191,#180,#217,.T.);
#160=EDGE_CURVE('',#181,#182,#218,.T.);
#161=EDGE_CURVE('',#167,#189,#219,.T.);
#162=EDGE_CURVE('',#166,#190,#220,.F.);
#163=EDGE_CURVE('',#191,#165,#221,.T.);
#164=VERTEX_POINT('',#442);
#165=VERTEX_POINT('',#443);
#166=VERTEX_POINT('',#445);
#167=VERTEX_POINT('',#447);
#168=VERTEX_POINT('',#449);
#169=VERTEX_POINT('',#451);
#170=VERTEX_POINT('',#453);
#171=VERTEX_POINT('',#455);
#172=VERTEX_POINT('',#457);
#173=VERTEX_POINT('',#459);
#174=VERTEX_POINT('',#461);
#175=VERTEX_POINT('',#463);
#176=VERTEX_POINT('',#465);
#177=VERTEX_POINT('',#467);
#178=VERTEX_POINT('',#471);
#179=VERTEX_POINT('',#473);
#180=VERTEX_POINT('',#477);
#181=VERTEX_POINT('',#478);
#182=VERTEX_POINT('',#483);
#183=VERTEX_POINT('',#484);
#184=VERTEX_POINT('',#489);
#185=VERTEX_POINT('',#493);
#186=VERTEX_POINT('',#497);
#187=VERTEX_POINT('',#501);
#188=VERTEX_POINT('',#505);
#189=VERTEX_POINT('',#511);
#190=VERTEX_POINT('',#513);
#191=VERTEX_POINT('',#515);
#192=LINE('',#441,#222);
#193=LINE('',#446,#223);
#194=LINE('',#448,#224);
#195=LINE('',#450,#225);
#196=LINE('',#454,#226);
#197=LINE('',#458,#227);
#198=LINE('',#462,#228);
#199=LINE('',#466,#229);
#200=LINE('',#470,#230);
#201=LINE('',#472,#231);
#202=LINE('',#474,#232);
#203=LINE('',#479,#233);
#204=LINE('',#480,#234);
#205=LINE('',#485,#235);
#206=LINE('',#486,#236);
#207=LINE('',#488,#237);
#208=LINE('',#490,#238);
#209=LINE('',#494,#239);
#210=LINE('',#496,#240);
#211=LINE('',#498,#241);
#212=LINE('',#502,#242);
#213=LINE('',#504,#243);
#214=LINE('',#506,#244);
#215=LINE('',#510,#245);
#216=LINE('',#512,#246);
#217=LINE('',#516,#247);
#218=LINE('',#517,#248);
#219=LINE('',#519,#249);
#220=LINE('',#522,#250);
#221=LINE('',#523,#251);
#222=VECTOR('',#355,1000.);
#223=VECTOR('',#358,1000.);
#224=VECTOR('',#359,1000.);
#225=VECTOR('',#360,1000.);
#226=VECTOR('',#363,1000.);
#227=VECTOR('',#366,1000.);
#228=VECTOR('',#369,1000.);
#229=VECTOR('',#372,1000.);
#230=VECTOR('',#377,1000.);
#231=VECTOR('',#378,1000.);
#232=VECTOR('',#379,1000.);
#233=VECTOR('',#384,1000.);
#234=VECTOR('',#385,1000.);
#235=VECTOR('',#390,1000.);
#236=VECTOR('',#391,1000.);
#237=VECTOR('',#394,1000.);
#238=VECTOR('',#395,1000.);
#239=VECTOR('',#400,1000.);
#240=VECTOR('',#403,1000.);
#241=VECTOR('',#404,1000.);
#242=VECTOR('',#409,1000.);
#243=VECTOR('',#412,1000.);
#244=VECTOR('',#413,1000.);
#245=VECTOR('',#420,1000.);
#246=VECTOR('',#421,1000.);
#247=VECTOR('',#424,1000.);
#248=VECTOR('',#425,1000.);
#249=VECTOR('',#428,1000.);
#250=VECTOR('',#433,1000.);
#251=VECTOR('',#434,1000.);
#252=EDGE_LOOP('',(#38,#39,#40,#41,#42,#43,#44,#45,#46,#47,#48,#49,#50,
#51));
#253=EDGE_LOOP('',(#52,#53,#54,#55));
#254=EDGE_LOOP('',(#56,#57,#58,#59));
#255=EDGE_LOOP('',(#60,#61,#62,#63));
#256=EDGE_LOOP('',(#64,#65,#66,#67));
#257=EDGE_LOOP('',(#68,#69,#70,#71));
#258=EDGE_LOOP('',(#72,#73,#74,#75));
#259=EDGE_LOOP('',(#76,#77,#78,#79));
#260=EDGE_LOOP('',(#80,#81,#82,#83));
#261=EDGE_LOOP('',(#84,#85,#86,#87));
#262=EDGE_LOOP('',(#88,#89,#90,#91,#92,#93,#94,#95,#96,#97,#98,#99,#100,
#101));
#263=EDGE_LOOP('',(#102,#103,#104,#105));
#264=EDGE_LOOP('',(#106,#107,#108,#109));
#265=EDGE_LOOP('',(#110,#111,#112,#113));
#266=EDGE_LOOP('',(#114,#115,#116,#117));
#267=EDGE_LOOP('',(#118,#119,#120,#121));
#268=FACE_BOUND('',#252,.T.);
#269=FACE_BOUND('',#253,.T.);
#270=FACE_BOUND('',#254,.T.);
#271=FACE_BOUND('',#255,.T.);
#272=FACE_BOUND('',#256,.T.);
#273=FACE_BOUND('',#257,.T.);
#274=FACE_BOUND('',#258,.T.);
#275=FACE_BOUND('',#259,.T.);
#276=FACE_BOUND('',#260,.T.);
#277=FACE_BOUND('',#261,.T.);
#278=FACE_BOUND('',#262,.T.);
#279=FACE_BOUND('',#263,.T.);
#280=FACE_BOUND('',#264,.T.);
#281=FACE_BOUND('',#265,.T.);
#282=FACE_BOUND('',#266,.T.);
#283=FACE_BOUND('',#267,.T.);
#284=PLANE('',#323);
#285=PLANE('',#330);
#286=PLANE('',#335);
#287=PLANE('',#338);
#288=PLANE('',#341);
#289=PLANE('',#344);
#290=PLANE('',#346);
#291=PLANE('',#347);
#292=PLANE('',#349);
#293=PLANE('',#350);
#294=ADVANCED_FACE('',(#268),#284,.F.);
#295=ADVANCED_FACE('',(#269),#285,.F.);
#296=ADVANCED_FACE('',(#270),#20,.T.);
#297=ADVANCED_FACE('',(#271),#21,.T.);
#298=ADVANCED_FACE('',(#272),#286,.F.);
#299=ADVANCED_FACE('',(#273),#22,.T.);
#300=ADVANCED_FACE('',(#274),#287,.F.);
#301=ADVANCED_FACE('',(#275),#23,.T.);
#302=ADVANCED_FACE('',(#276),#288,.F.);
#303=ADVANCED_FACE('',(#277),#24,.T.);
#304=ADVANCED_FACE('',(#278),#289,.T.);
#305=ADVANCED_FACE('',(#279),#290,.F.);
#306=ADVANCED_FACE('',(#280),#291,.F.);
#307=ADVANCED_FACE('',(#281),#25,.F.);
#308=ADVANCED_FACE('',(#282),#292,.T.);
#309=ADVANCED_FACE('',(#283),#293,.T.);
#310=CLOSED_SHELL('',(#294,#295,#296,#297,#298,#299,#300,#301,#302,#303,
#304,#305,#306,#307,#308,#309));
#311=STYLED_ITEM('',(#312),#319);
#312=PRESENTATION_STYLE_ASSIGNMENT((#313));
#313=SURFACE_STYLE_USAGE(.BOTH.,#314);
#314=SURFACE_SIDE_STYLE('',(#315));
#315=SURFACE_STYLE_FILL_AREA(#316);
#316=FILL_AREA_STYLE('',(#317));
#317=FILL_AREA_STYLE_COLOUR('',#318);
#318=COLOUR_RGB('',0.752941191196442,0.752941191196442,0.752941191196442);
#319=MANIFOLD_SOLID_BREP('',#310);
#320=SHAPE_DEFINITION_REPRESENTATION(#532,#321);
#321=SHAPE_REPRESENTATION('6MCT1.5H',(#322),#527);
#322=AXIS2_PLACEMENT_3D('',#439,#351,#352);
#323=AXIS2_PLACEMENT_3D('',#440,#353,#354);
#324=AXIS2_PLACEMENT_3D('',#444,#356,#357);
#325=AXIS2_PLACEMENT_3D('',#452,#361,#362);
#326=AXIS2_PLACEMENT_3D('',#456,#364,#365);
#327=AXIS2_PLACEMENT_3D('',#460,#367,#368);
#328=AXIS2_PLACEMENT_3D('',#464,#370,#371);
#329=AXIS2_PLACEMENT_3D('',#468,#373,#374);
#330=AXIS2_PLACEMENT_3D('',#469,#375,#376);
#331=AXIS2_PLACEMENT_3D('',#475,#380,#381);
#332=AXIS2_PLACEMENT_3D('',#476,#382,#383);
#333=AXIS2_PLACEMENT_3D('',#481,#386,#387);
#334=AXIS2_PLACEMENT_3D('',#482,#388,#389);
#335=AXIS2_PLACEMENT_3D('',#487,#392,#393);
#336=AXIS2_PLACEMENT_3D('',#491,#396,#397);
#337=AXIS2_PLACEMENT_3D('',#492,#398,#399);
#338=AXIS2_PLACEMENT_3D('',#495,#401,#402);
#339=AXIS2_PLACEMENT_3D('',#499,#405,#406);
#340=AXIS2_PLACEMENT_3D('',#500,#407,#408);
#341=AXIS2_PLACEMENT_3D('',#503,#410,#411);
#342=AXIS2_PLACEMENT_3D('',#507,#414,#415);
#343=AXIS2_PLACEMENT_3D('',#508,#416,#417);
#344=AXIS2_PLACEMENT_3D('',#509,#418,#419);
#345=AXIS2_PLACEMENT_3D('',#514,#422,#423);
#346=AXIS2_PLACEMENT_3D('',#518,#426,#427);
#347=AXIS2_PLACEMENT_3D('',#520,#429,#430);
#348=AXIS2_PLACEMENT_3D('',#521,#431,#432);
#349=AXIS2_PLACEMENT_3D('',#524,#435,#436);
#350=AXIS2_PLACEMENT_3D('',#525,#437,#438);
#351=DIRECTION('',(0.,0.,1.));
#352=DIRECTION('',(1.,0.,0.));
#353=DIRECTION('',(0.,0.,1.));
#354=DIRECTION('',(1.,0.,0.));
#355=DIRECTION('',(1.,0.,0.));
#356=DIRECTION('',(0.,0.,1.));
#357=DIRECTION('',(-1.,0.,0.));
#358=DIRECTION('',(0.139173100960071,0.99026806874157,0.));
#359=DIRECTION('',(-1.,1.38777878078145E-16,0.));
#360=DIRECTION('',(0.,1.,0.));
#361=DIRECTION('',(0.,0.,1.));
#362=DIRECTION('',(1.,0.,0.));
#363=DIRECTION('',(0.707106781186547,0.707106781186548,0.));
#364=DIRECTION('',(0.,0.,1.));
#365=DIRECTION('',(1.,0.,0.));
#366=DIRECTION('',(1.,1.38777878078145E-16,0.));
#367=DIRECTION('',(0.,0.,1.));
#368=DIRECTION('',(1.,0.,0.));
#369=DIRECTION('',(0.707106781186547,-0.707106781186548,0.));
#370=DIRECTION('',(0.,0.,1.));
#371=DIRECTION('',(1.,0.,0.));
#372=DIRECTION('',(0.,-1.,0.));
#373=DIRECTION('',(0.,0.,1.));
#374=DIRECTION('',(1.,0.,0.));
#375=DIRECTION('',(-1.,0.,0.));
#376=DIRECTION('',(0.,0.,1.));
#377=DIRECTION('',(0.,0.,-1.));
#378=DIRECTION('',(0.,1.,0.));
#379=DIRECTION('',(0.,0.,-1.));
#380=DIRECTION('',(0.,0.,1.));
#381=DIRECTION('',(1.,0.,0.));
#382=DIRECTION('',(0.,0.,1.));
#383=DIRECTION('',(1.,0.,0.));
#384=DIRECTION('',(0.,0.,-1.));
#385=DIRECTION('',(0.,0.,-1.));
#386=DIRECTION('',(0.,0.,-1.));
#387=DIRECTION('',(-1.,0.,0.));
#388=DIRECTION('',(0.,0.,1.));
#389=DIRECTION('',(1.,0.,0.));
#390=DIRECTION('',(0.,0.,-1.));
#391=DIRECTION('',(0.,0.,-1.));
#392=DIRECTION('',(0.707106781186548,0.707106781186547,0.));
#393=DIRECTION('',(-0.707106781186547,0.707106781186548,0.));
#394=DIRECTION('',(-0.707106781186547,0.707106781186548,0.));
#395=DIRECTION('',(0.,0.,-1.));
#396=DIRECTION('',(0.,0.,-1.));
#397=DIRECTION('',(-1.,0.,0.));
#398=DIRECTION('',(0.,0.,1.));
#399=DIRECTION('',(1.,0.,0.));
#400=DIRECTION('',(0.,0.,-1.));
#401=DIRECTION('',(-1.38777878078145E-16,1.,0.));
#402=DIRECTION('',(-1.,-1.38777878078145E-16,0.));
#403=DIRECTION('',(0.,0.,-1.));
#404=DIRECTION('',(1.,1.38777878078145E-16,0.));
#405=DIRECTION('',(0.,0.,-1.));
#406=DIRECTION('',(-1.,0.,0.));
#407=DIRECTION('',(0.,0.,1.));
#408=DIRECTION('',(1.,0.,0.));
#409=DIRECTION('',(0.,0.,-1.));
#410=DIRECTION('',(-0.707106781186548,0.707106781186547,0.));
#411=DIRECTION('',(-0.707106781186547,-0.707106781186548,0.));
#412=DIRECTION('',(0.,0.,-1.));
#413=DIRECTION('',(-0.707106781186547,-0.707106781186548,0.));
#414=DIRECTION('',(0.,0.,-1.));
#415=DIRECTION('',(-1.,0.,0.));
#416=DIRECTION('',(0.,0.,1.));
#417=DIRECTION('',(1.,0.,0.));
#418=DIRECTION('',(0.,0.,1.));
#419=DIRECTION('',(1.,0.,0.));
#420=DIRECTION('',(-1.,1.38777878078145E-16,0.));
#421=DIRECTION('',(-0.139173100960067,-0.99026806874157,0.));
#422=DIRECTION('',(0.,0.,1.));
#423=DIRECTION('',(1.,0.,0.));
#424=DIRECTION('',(-1.,0.,0.));
#425=DIRECTION('',(0.,-1.,0.));
#426=DIRECTION('',(-1.38777878078145E-16,-1.,0.));
#427=DIRECTION('',(1.,-1.38777878078145E-16,0.));
#428=DIRECTION('',(0.,0.,1.));
#429=DIRECTION('',(1.,0.,0.));
#430=DIRECTION('',(0.,0.,-1.));
#431=DIRECTION('',(0.,0.,1.));
#432=DIRECTION('',(1.,0.,0.));
#433=DIRECTION('',(0.,0.,-1.));
#434=DIRECTION('',(0.,0.,-1.));
#435=DIRECTION('',(0.,1.,0.));
#436=DIRECTION('',(0.,0.,1.));
#437=DIRECTION('',(-0.99026806874157,0.139173100960066,0.));
#438=DIRECTION('',(-0.139173100960066,-0.99026806874157,0.));
#439=CARTESIAN_POINT('',(0.,0.,0.));
#440=CARTESIAN_POINT('',(-12.5,-8.6,0.));
#441=CARTESIAN_POINT('',(-12.5,5.4,0.));
#442=CARTESIAN_POINT('',(-12.,5.4,0.));
#443=CARTESIAN_POINT('',(-10.1557265437677,5.4,0.));
#444=CARTESIAN_POINT('',(-10.1557265437677,6.4,0.));
#445=CARTESIAN_POINT('',(-9.16545847502617,6.26082689903993,0.));
#446=CARTESIAN_POINT('',(-8.83670913490385,8.6,0.));
#447=CARTESIAN_POINT('',(-8.83670913490386,8.6,0.));
#448=CARTESIAN_POINT('',(12.5,8.6,0.));
#449=CARTESIAN_POINT('',(12.5,8.6,0.));
#450=CARTESIAN_POINT('',(12.5,-8.6,0.));
#451=CARTESIAN_POINT('',(12.5,-3.14289321881343,0.));
#452=CARTESIAN_POINT('',(12.,-3.14289321881343,0.));
#453=CARTESIAN_POINT('',(12.3535533905933,-3.49644660940671,0.));
#454=CARTESIAN_POINT('',(7.24999999999999,-8.6,0.));
#455=CARTESIAN_POINT('',(7.39644660940672,-8.45355339059327,0.));
#456=CARTESIAN_POINT('',(7.04289321881345,-8.1,0.));
#457=CARTESIAN_POINT('',(7.04289321881345,-8.6,0.));
#458=CARTESIAN_POINT('',(-12.5,-8.6,0.));
#459=CARTESIAN_POINT('',(-7.04289321881345,-8.6,0.));
#460=CARTESIAN_POINT('',(-7.04289321881345,-8.1,0.));
#461=CARTESIAN_POINT('',(-7.39644660940672,-8.45355339059327,0.));
#462=CARTESIAN_POINT('',(-12.5,-3.34999999999999,0.));
#463=CARTESIAN_POINT('',(-12.3535533905933,-3.49644660940671,0.));
#464=CARTESIAN_POINT('',(-12.,-3.14289321881344,0.));
#465=CARTESIAN_POINT('',(-12.5,-3.14289321881344,0.));
#466=CARTESIAN_POINT('',(-12.5,8.6,0.));
#467=CARTESIAN_POINT('',(-12.5,4.9,0.));
#468=CARTESIAN_POINT('',(-12.,4.9,0.));
#469=CARTESIAN_POINT('',(12.5,-8.6,5.));
#470=CARTESIAN_POINT('',(12.5,8.6,5.));
#471=CARTESIAN_POINT('',(12.5,8.6,5.));
#472=CARTESIAN_POINT('',(12.5,-8.6,5.));
#473=CARTESIAN_POINT('',(12.5,-3.14289321881343,5.));
#474=CARTESIAN_POINT('',(12.5,-3.14289321881343,5.));
#475=CARTESIAN_POINT('',(-12.,4.9,5.));
#476=CARTESIAN_POINT('',(-12.,4.9,5.));
#477=CARTESIAN_POINT('',(-12.,5.4,5.));
#478=CARTESIAN_POINT('',(-12.5,4.9,5.));
#479=CARTESIAN_POINT('',(-12.,5.4,5.));
#480=CARTESIAN_POINT('',(-12.5,4.9,0.));
#481=CARTESIAN_POINT('',(-12.,-3.14289321881344,15.3));
#482=CARTESIAN_POINT('',(-12.,-3.14289321881344,5.));
#483=CARTESIAN_POINT('',(-12.5,-3.14289321881344,5.));
#484=CARTESIAN_POINT('',(-12.3535533905933,-3.49644660940671,5.));
#485=CARTESIAN_POINT('',(-12.5,-3.14289321881344,5.));
#486=CARTESIAN_POINT('',(-12.3535533905933,-3.49644660940671,15.3));
#487=CARTESIAN_POINT('',(-12.5,-3.34999999999999,15.3));
#488=CARTESIAN_POINT('',(-9.87499999999999,-5.975,5.));
#489=CARTESIAN_POINT('',(-7.39644660940672,-8.45355339059328,5.));
#490=CARTESIAN_POINT('',(-7.39644660940672,-8.45355339059327,15.3));
#491=CARTESIAN_POINT('',(-7.04289321881345,-8.1,5.));
#492=CARTESIAN_POINT('',(-7.04289321881345,-8.1,5.));
#493=CARTESIAN_POINT('',(-7.04289321881345,-8.6,5.));
#494=CARTESIAN_POINT('',(-7.04289321881345,-8.6,5.));
#495=CARTESIAN_POINT('',(-12.5,-8.6,5.));
#496=CARTESIAN_POINT('',(7.04289321881345,-8.6,5.));
#497=CARTESIAN_POINT('',(7.04289321881345,-8.6,5.));
#498=CARTESIAN_POINT('',(-12.5,-8.6,5.));
#499=CARTESIAN_POINT('',(7.04289321881345,-8.1,15.3));
#500=CARTESIAN_POINT('',(7.04289321881345,-8.1,5.));
#501=CARTESIAN_POINT('',(7.39644660940673,-8.45355339059327,5.));
#502=CARTESIAN_POINT('',(7.39644660940672,-8.45355339059327,15.3));
#503=CARTESIAN_POINT('',(7.24999999999999,-8.6,15.3));
#504=CARTESIAN_POINT('',(12.3535533905933,-3.49644660940671,15.3));
#505=CARTESIAN_POINT('',(12.3535533905933,-3.4964466094067,5.));
#506=CARTESIAN_POINT('',(-2.62499999999999,-18.475,5.));
#507=CARTESIAN_POINT('',(12.,-3.14289321881343,5.));
#508=CARTESIAN_POINT('',(12.,-3.14289321881343,5.));
#509=CARTESIAN_POINT('',(-12.5,-8.6,5.));
#510=CARTESIAN_POINT('',(12.5,8.6,5.));
#511=CARTESIAN_POINT('',(-8.83670913490386,8.60000000000001,5.));
#512=CARTESIAN_POINT('',(-11.2781452326293,-8.77172048889138,5.));
#513=CARTESIAN_POINT('',(-9.16545847502617,6.26082689903993,5.));
#514=CARTESIAN_POINT('',(-10.1557265437677,6.4,5.));
#515=CARTESIAN_POINT('',(-10.1557265437677,5.4,5.));
#516=CARTESIAN_POINT('',(-12.5,5.4,5.));
#517=CARTESIAN_POINT('',(-12.5,8.6,5.));
#518=CARTESIAN_POINT('',(12.5,8.6,5.));
#519=CARTESIAN_POINT('',(-8.83670913490386,8.60000000000001,14.1));
#520=CARTESIAN_POINT('',(-12.5,8.6,5.));
#521=CARTESIAN_POINT('',(-10.1557265437677,6.4,14.1));
#522=CARTESIAN_POINT('',(-9.16545847502617,6.26082689903993,5.));
#523=CARTESIAN_POINT('',(-10.1557265437677,5.4,3.1));
#524=CARTESIAN_POINT('',(-12.5,5.4,14.1));
#525=CARTESIAN_POINT('',(-9.28643980595151,5.4,2.45));
#526=MECHANICAL_DESIGN_GEOMETRIC_PRESENTATION_REPRESENTATION('',(#311),
#527);
#527=(
GEOMETRIC_REPRESENTATION_CONTEXT(3)
GLOBAL_UNCERTAINTY_ASSIGNED_CONTEXT((#528))
GLOBAL_UNIT_ASSIGNED_CONTEXT((#531,#530,#529))
REPRESENTATION_CONTEXT('6MCT1.5H','TOP_LEVEL_ASSEMBLY_PART')
);
#528=UNCERTAINTY_MEASURE_WITH_UNIT(LENGTH_MEASURE(0.005),#531,
'DISTANCE_ACCURACY_VALUE','Maximum Tolerance applied to model');
#529=(
NAMED_UNIT(*)
SI_UNIT($,.STERADIAN.)
SOLID_ANGLE_UNIT()
);
#530=(
NAMED_UNIT(*)
PLANE_ANGLE_UNIT()
SI_UNIT($,.RADIAN.)
);
#531=(
LENGTH_UNIT()
NAMED_UNIT(*)
SI_UNIT(.MILLI.,.METRE.)
);
#532=PRODUCT_DEFINITION_SHAPE('','',#533);
#533=PRODUCT_DEFINITION('','',#535,#534);
#534=PRODUCT_DEFINITION_CONTEXT('',#541,'design');
#535=PRODUCT_DEFINITION_FORMATION_WITH_SPECIFIED_SOURCE('','',#537,
 .NOT_KNOWN.);
#536=PRODUCT_RELATED_PRODUCT_CATEGORY('','',(#537));
#537=PRODUCT('6MCT1.5H','6MCT1.5H','6MCT1.5H',(#539));
#538=PRODUCT_CATEGORY('','');
#539=PRODUCT_CONTEXT('',#541,'mechanical');
#540=APPLICATION_PROTOCOL_DEFINITION('international standard',
'automotive_design',2010,#541);
#541=APPLICATION_CONTEXT(
'core data for automotive mechanical design processes');
ENDSEC;
END-ISO-10303-21;
