ISO-10303-21;
HEADER;
/* Generated by software containing ST-Developer
 * from STEP Tools, Inc. (www.steptools.com) 
 */
/* OPTION: strings as raw bytes, not using required /X/ escapes */

FILE_DESCRIPTION(
/* description */ ('Unknown'),
/* implementation_level */ '2;1');

FILE_NAME(
/* name */ '6CSLT1H',
/* time_stamp */ '2016-11-21T14:49:34+05:00',
/* author */ ('Unknown'),
/* organization */ ('Unknown'),
/* preprocessor_version */ 'ST-DEVELOPER v16',
/* originating_system */ 'DEX',
/* authorisation */ $);

FILE_SCHEMA (('AUTOMOTIVE_DESIGN {1 0 10303 214 3 1 1}'));
ENDSEC;

DATA;
#10=PROPERTY_DEFINITION_REPRESENTATION(#14,#12);
#11=PROPERTY_DEFINITION_REPRESENTATION(#15,#13);
#12=REPRESENTATION('',(#16),#620);
#13=REPRESENTATION('',(#17),#620);
#14=PROPERTY_DEFINITION('pmi validation property','',#625);
#15=PROPERTY_DEFINITION('pmi validation property','',#625);
#16=VALUE_REPRESENTATION_ITEM('number of annotations',COUNT_MEASURE(0.));
#17=VALUE_REPRESENTATION_ITEM('number of views',COUNT_MEASURE(0.));
#18=SHAPE_REPRESENTATION_RELATIONSHIP('','',#390,#19);
#19=ADVANCED_BREP_SHAPE_REPRESENTATION('',(#388),#620);
#20=CYLINDRICAL_SURFACE('',#414,1.5);
#21=CYLINDRICAL_SURFACE('',#415,2.);
#22=CYLINDRICAL_SURFACE('',#416,1.5);
#23=CIRCLE('',#394,1.5);
#24=CIRCLE('',#395,1.5);
#25=CIRCLE('',#396,2.);
#26=CIRCLE('',#401,1.5);
#27=CIRCLE('',#402,2.);
#28=CIRCLE('',#403,1.5);
#29=ORIENTED_EDGE('',*,*,#131,.T.);
#30=ORIENTED_EDGE('',*,*,#132,.F.);
#31=ORIENTED_EDGE('',*,*,#133,.F.);
#32=ORIENTED_EDGE('',*,*,#134,.T.);
#33=ORIENTED_EDGE('',*,*,#135,.F.);
#34=ORIENTED_EDGE('',*,*,#136,.T.);
#35=ORIENTED_EDGE('',*,*,#137,.F.);
#36=ORIENTED_EDGE('',*,*,#134,.F.);
#37=ORIENTED_EDGE('',*,*,#138,.F.);
#38=ORIENTED_EDGE('',*,*,#139,.F.);
#39=ORIENTED_EDGE('',*,*,#140,.F.);
#40=ORIENTED_EDGE('',*,*,#141,.F.);
#41=ORIENTED_EDGE('',*,*,#142,.F.);
#42=ORIENTED_EDGE('',*,*,#143,.T.);
#43=ORIENTED_EDGE('',*,*,#144,.F.);
#44=ORIENTED_EDGE('',*,*,#145,.T.);
#45=ORIENTED_EDGE('',*,*,#146,.T.);
#46=ORIENTED_EDGE('',*,*,#147,.T.);
#47=ORIENTED_EDGE('',*,*,#148,.T.);
#48=ORIENTED_EDGE('',*,*,#149,.T.);
#49=ORIENTED_EDGE('',*,*,#150,.T.);
#50=ORIENTED_EDGE('',*,*,#151,.T.);
#51=ORIENTED_EDGE('',*,*,#152,.F.);
#52=ORIENTED_EDGE('',*,*,#131,.F.);
#53=ORIENTED_EDGE('',*,*,#137,.T.);
#54=ORIENTED_EDGE('',*,*,#153,.T.);
#55=ORIENTED_EDGE('',*,*,#154,.F.);
#56=ORIENTED_EDGE('',*,*,#155,.F.);
#57=ORIENTED_EDGE('',*,*,#140,.T.);
#58=ORIENTED_EDGE('',*,*,#156,.F.);
#59=ORIENTED_EDGE('',*,*,#157,.T.);
#60=ORIENTED_EDGE('',*,*,#135,.T.);
#61=ORIENTED_EDGE('',*,*,#158,.T.);
#62=ORIENTED_EDGE('',*,*,#159,.T.);
#63=ORIENTED_EDGE('',*,*,#154,.T.);
#64=ORIENTED_EDGE('',*,*,#160,.T.);
#65=ORIENTED_EDGE('',*,*,#161,.T.);
#66=ORIENTED_EDGE('',*,*,#132,.T.);
#67=ORIENTED_EDGE('',*,*,#152,.T.);
#68=ORIENTED_EDGE('',*,*,#162,.T.);
#69=ORIENTED_EDGE('',*,*,#156,.T.);
#70=ORIENTED_EDGE('',*,*,#163,.T.);
#71=ORIENTED_EDGE('',*,*,#164,.T.);
#72=ORIENTED_EDGE('',*,*,#165,.T.);
#73=ORIENTED_EDGE('',*,*,#166,.T.);
#74=ORIENTED_EDGE('',*,*,#167,.T.);
#75=ORIENTED_EDGE('',*,*,#168,.T.);
#76=ORIENTED_EDGE('',*,*,#169,.T.);
#77=ORIENTED_EDGE('',*,*,#170,.F.);
#78=ORIENTED_EDGE('',*,*,#171,.T.);
#79=ORIENTED_EDGE('',*,*,#172,.T.);
#80=ORIENTED_EDGE('',*,*,#171,.F.);
#81=ORIENTED_EDGE('',*,*,#173,.F.);
#82=ORIENTED_EDGE('',*,*,#142,.T.);
#83=ORIENTED_EDGE('',*,*,#155,.T.);
#84=ORIENTED_EDGE('',*,*,#159,.F.);
#85=ORIENTED_EDGE('',*,*,#172,.F.);
#86=ORIENTED_EDGE('',*,*,#141,.T.);
#87=ORIENTED_EDGE('',*,*,#174,.F.);
#88=ORIENTED_EDGE('',*,*,#169,.F.);
#89=ORIENTED_EDGE('',*,*,#175,.T.);
#90=ORIENTED_EDGE('',*,*,#144,.T.);
#91=ORIENTED_EDGE('',*,*,#170,.T.);
#92=ORIENTED_EDGE('',*,*,#174,.T.);
#93=ORIENTED_EDGE('',*,*,#143,.F.);
#94=ORIENTED_EDGE('',*,*,#173,.T.);
#95=ORIENTED_EDGE('',*,*,#139,.T.);
#96=ORIENTED_EDGE('',*,*,#176,.T.);
#97=ORIENTED_EDGE('',*,*,#160,.F.);
#98=ORIENTED_EDGE('',*,*,#153,.F.);
#99=ORIENTED_EDGE('',*,*,#138,.T.);
#100=ORIENTED_EDGE('',*,*,#133,.T.);
#101=ORIENTED_EDGE('',*,*,#161,.F.);
#102=ORIENTED_EDGE('',*,*,#176,.F.);
#103=ORIENTED_EDGE('',*,*,#177,.T.);
#104=ORIENTED_EDGE('',*,*,#146,.F.);
#105=ORIENTED_EDGE('',*,*,#178,.F.);
#106=ORIENTED_EDGE('',*,*,#167,.F.);
#107=ORIENTED_EDGE('',*,*,#178,.T.);
#108=ORIENTED_EDGE('',*,*,#145,.F.);
#109=ORIENTED_EDGE('',*,*,#175,.F.);
#110=ORIENTED_EDGE('',*,*,#168,.F.);
#111=ORIENTED_EDGE('',*,*,#164,.F.);
#112=ORIENTED_EDGE('',*,*,#179,.T.);
#113=ORIENTED_EDGE('',*,*,#149,.F.);
#114=ORIENTED_EDGE('',*,*,#180,.T.);
#115=ORIENTED_EDGE('',*,*,#166,.F.);
#116=ORIENTED_EDGE('',*,*,#181,.T.);
#117=ORIENTED_EDGE('',*,*,#147,.F.);
#118=ORIENTED_EDGE('',*,*,#177,.F.);
#119=ORIENTED_EDGE('',*,*,#165,.F.);
#120=ORIENTED_EDGE('',*,*,#180,.F.);
#121=ORIENTED_EDGE('',*,*,#148,.F.);
#122=ORIENTED_EDGE('',*,*,#181,.F.);
#123=ORIENTED_EDGE('',*,*,#163,.F.);
#124=ORIENTED_EDGE('',*,*,#158,.F.);
#125=ORIENTED_EDGE('',*,*,#150,.F.);
#126=ORIENTED_EDGE('',*,*,#179,.F.);
#127=ORIENTED_EDGE('',*,*,#162,.F.);
#128=ORIENTED_EDGE('',*,*,#151,.F.);
#129=ORIENTED_EDGE('',*,*,#136,.F.);
#130=ORIENTED_EDGE('',*,*,#157,.F.);
#131=EDGE_CURVE('',#182,#183,#216,.T.);
#132=EDGE_CURVE('',#184,#183,#217,.T.);
#133=EDGE_CURVE('',#185,#184,#218,.T.);
#134=EDGE_CURVE('',#185,#182,#219,.T.);
#135=EDGE_CURVE('',#186,#187,#220,.T.);
#136=EDGE_CURVE('',#186,#188,#23,.F.);
#137=EDGE_CURVE('',#182,#188,#221,.T.);
#138=EDGE_CURVE('',#189,#185,#222,.T.);
#139=EDGE_CURVE('',#190,#189,#223,.T.);
#140=EDGE_CURVE('',#191,#190,#224,.T.);
#141=EDGE_CURVE('',#192,#191,#225,.T.);
#142=EDGE_CURVE('',#193,#192,#226,.T.);
#143=EDGE_CURVE('',#193,#194,#227,.T.);
#144=EDGE_CURVE('',#195,#194,#228,.T.);
#145=EDGE_CURVE('',#195,#196,#229,.T.);
#146=EDGE_CURVE('',#196,#197,#230,.T.);
#147=EDGE_CURVE('',#197,#198,#231,.T.);
#148=EDGE_CURVE('',#198,#199,#24,.F.);
#149=EDGE_CURVE('',#199,#200,#232,.T.);
#150=EDGE_CURVE('',#200,#187,#25,.F.);
#151=EDGE_CURVE('',#188,#201,#233,.F.);
#152=EDGE_CURVE('',#183,#201,#234,.T.);
#153=EDGE_CURVE('',#190,#202,#235,.T.);
#154=EDGE_CURVE('',#203,#202,#236,.T.);
#155=EDGE_CURVE('',#191,#203,#237,.T.);
#156=EDGE_CURVE('',#204,#205,#238,.T.);
#157=EDGE_CURVE('',#204,#186,#239,.T.);
#158=EDGE_CURVE('',#187,#205,#240,.F.);
#159=EDGE_CURVE('',#206,#203,#241,.T.);
#160=EDGE_CURVE('',#202,#207,#242,.T.);
#161=EDGE_CURVE('',#207,#184,#243,.T.);
#162=EDGE_CURVE('',#201,#204,#26,.T.);
#163=EDGE_CURVE('',#205,#208,#27,.T.);
#164=EDGE_CURVE('',#208,#209,#244,.T.);
#165=EDGE_CURVE('',#209,#210,#28,.T.);
#166=EDGE_CURVE('',#210,#211,#245,.T.);
#167=EDGE_CURVE('',#211,#212,#246,.T.);
#168=EDGE_CURVE('',#212,#213,#247,.T.);
#169=EDGE_CURVE('',#213,#214,#248,.T.);
#170=EDGE_CURVE('',#215,#214,#249,.T.);
#171=EDGE_CURVE('',#215,#206,#250,.T.);
#172=EDGE_CURVE('',#192,#206,#251,.T.);
#173=EDGE_CURVE('',#193,#215,#252,.T.);
#174=EDGE_CURVE('',#214,#194,#253,.T.);
#175=EDGE_CURVE('',#213,#195,#254,.T.);
#176=EDGE_CURVE('',#189,#207,#255,.T.);
#177=EDGE_CURVE('',#211,#197,#256,.T.);
#178=EDGE_CURVE('',#212,#196,#257,.T.);
#179=EDGE_CURVE('',#208,#200,#258,.T.);
#180=EDGE_CURVE('',#199,#209,#259,.F.);
#181=EDGE_CURVE('',#210,#198,#260,.T.);
#182=VERTEX_POINT('',#517);
#183=VERTEX_POINT('',#518);
#184=VERTEX_POINT('',#520);
#185=VERTEX_POINT('',#522);
#186=VERTEX_POINT('',#526);
#187=VERTEX_POINT('',#527);
#188=VERTEX_POINT('',#529);
#189=VERTEX_POINT('',#532);
#190=VERTEX_POINT('',#534);
#191=VERTEX_POINT('',#536);
#192=VERTEX_POINT('',#538);
#193=VERTEX_POINT('',#540);
#194=VERTEX_POINT('',#542);
#195=VERTEX_POINT('',#544);
#196=VERTEX_POINT('',#546);
#197=VERTEX_POINT('',#548);
#198=VERTEX_POINT('',#550);
#199=VERTEX_POINT('',#552);
#200=VERTEX_POINT('',#554);
#201=VERTEX_POINT('',#558);
#202=VERTEX_POINT('',#562);
#203=VERTEX_POINT('',#564);
#204=VERTEX_POINT('',#568);
#205=VERTEX_POINT('',#569);
#206=VERTEX_POINT('',#574);
#207=VERTEX_POINT('',#576);
#208=VERTEX_POINT('',#580);
#209=VERTEX_POINT('',#582);
#210=VERTEX_POINT('',#584);
#211=VERTEX_POINT('',#586);
#212=VERTEX_POINT('',#588);
#213=VERTEX_POINT('',#590);
#214=VERTEX_POINT('',#592);
#215=VERTEX_POINT('',#594);
#216=LINE('',#516,#261);
#217=LINE('',#519,#262);
#218=LINE('',#521,#263);
#219=LINE('',#523,#264);
#220=LINE('',#525,#265);
#221=LINE('',#530,#266);
#222=LINE('',#531,#267);
#223=LINE('',#533,#268);
#224=LINE('',#535,#269);
#225=LINE('',#537,#270);
#226=LINE('',#539,#271);
#227=LINE('',#541,#272);
#228=LINE('',#543,#273);
#229=LINE('',#545,#274);
#230=LINE('',#547,#275);
#231=LINE('',#549,#276);
#232=LINE('',#553,#277);
#233=LINE('',#557,#278);
#234=LINE('',#559,#279);
#235=LINE('',#561,#280);
#236=LINE('',#563,#281);
#237=LINE('',#565,#282);
#238=LINE('',#567,#283);
#239=LINE('',#570,#284);
#240=LINE('',#571,#285);
#241=LINE('',#573,#286);
#242=LINE('',#575,#287);
#243=LINE('',#577,#288);
#244=LINE('',#581,#289);
#245=LINE('',#585,#290);
#246=LINE('',#587,#291);
#247=LINE('',#589,#292);
#248=LINE('',#591,#293);
#249=LINE('',#593,#294);
#250=LINE('',#595,#295);
#251=LINE('',#597,#296);
#252=LINE('',#598,#297);
#253=LINE('',#601,#298);
#254=LINE('',#602,#299);
#255=LINE('',#605,#300);
#256=LINE('',#608,#301);
#257=LINE('',#609,#302);
#258=LINE('',#612,#303);
#259=LINE('',#613,#304);
#260=LINE('',#615,#305);
#261=VECTOR('',#421,1000.);
#262=VECTOR('',#422,1000.);
#263=VECTOR('',#423,1000.);
#264=VECTOR('',#424,1000.);
#265=VECTOR('',#427,1000.);
#266=VECTOR('',#430,1000.);
#267=VECTOR('',#431,1000.);
#268=VECTOR('',#432,1000.);
#269=VECTOR('',#433,1000.);
#270=VECTOR('',#434,1000.);
#271=VECTOR('',#435,1000.);
#272=VECTOR('',#436,1000.);
#273=VECTOR('',#437,1000.);
#274=VECTOR('',#438,1000.);
#275=VECTOR('',#439,1000.);
#276=VECTOR('',#440,1000.);
#277=VECTOR('',#443,1000.);
#278=VECTOR('',#448,1000.);
#279=VECTOR('',#449,1000.);
#280=VECTOR('',#452,1000.);
#281=VECTOR('',#453,1000.);
#282=VECTOR('',#454,1000.);
#283=VECTOR('',#457,1000.);
#284=VECTOR('',#458,1000.);
#285=VECTOR('',#459,1000.);
#286=VECTOR('',#462,1000.);
#287=VECTOR('',#463,1000.);
#288=VECTOR('',#464,1000.);
#289=VECTOR('',#469,1000.);
#290=VECTOR('',#472,1000.);
#291=VECTOR('',#473,1000.);
#292=VECTOR('',#474,1000.);
#293=VECTOR('',#475,1000.);
#294=VECTOR('',#476,1000.);
#295=VECTOR('',#477,1000.);
#296=VECTOR('',#480,1000.);
#297=VECTOR('',#481,1000.);
#298=VECTOR('',#486,1000.);
#299=VECTOR('',#487,1000.);
#300=VECTOR('',#492,1000.);
#301=VECTOR('',#497,1000.);
#302=VECTOR('',#498,1000.);
#303=VECTOR('',#503,1000.);
#304=VECTOR('',#504,1000.);
#305=VECTOR('',#507,1000.);
#306=EDGE_LOOP('',(#29,#30,#31,#32));
#307=EDGE_LOOP('',(#33,#34,#35,#36,#37,#38,#39,#40,#41,#42,#43,#44,#45,
#46,#47,#48,#49));
#308=EDGE_LOOP('',(#50,#51,#52,#53));
#309=EDGE_LOOP('',(#54,#55,#56,#57));
#310=EDGE_LOOP('',(#58,#59,#60,#61));
#311=EDGE_LOOP('',(#62,#63,#64,#65,#66,#67,#68,#69,#70,#71,#72,#73,#74,
#75,#76,#77,#78));
#312=EDGE_LOOP('',(#79,#80,#81,#82));
#313=EDGE_LOOP('',(#83,#84,#85,#86));
#314=EDGE_LOOP('',(#87,#88,#89,#90));
#315=EDGE_LOOP('',(#91,#92,#93,#94));
#316=EDGE_LOOP('',(#95,#96,#97,#98));
#317=EDGE_LOOP('',(#99,#100,#101,#102));
#318=EDGE_LOOP('',(#103,#104,#105,#106));
#319=EDGE_LOOP('',(#107,#108,#109,#110));
#320=EDGE_LOOP('',(#111,#112,#113,#114));
#321=EDGE_LOOP('',(#115,#116,#117,#118));
#322=EDGE_LOOP('',(#119,#120,#121,#122));
#323=EDGE_LOOP('',(#123,#124,#125,#126));
#324=EDGE_LOOP('',(#127,#128,#129,#130));
#325=FACE_BOUND('',#306,.T.);
#326=FACE_BOUND('',#307,.T.);
#327=FACE_BOUND('',#308,.T.);
#328=FACE_BOUND('',#309,.T.);
#329=FACE_BOUND('',#310,.T.);
#330=FACE_BOUND('',#311,.T.);
#331=FACE_BOUND('',#312,.T.);
#332=FACE_BOUND('',#313,.T.);
#333=FACE_BOUND('',#314,.T.);
#334=FACE_BOUND('',#315,.T.);
#335=FACE_BOUND('',#316,.T.);
#336=FACE_BOUND('',#317,.T.);
#337=FACE_BOUND('',#318,.T.);
#338=FACE_BOUND('',#319,.T.);
#339=FACE_BOUND('',#320,.T.);
#340=FACE_BOUND('',#321,.T.);
#341=FACE_BOUND('',#322,.T.);
#342=FACE_BOUND('',#323,.T.);
#343=FACE_BOUND('',#324,.T.);
#344=PLANE('',#392);
#345=PLANE('',#393);
#346=PLANE('',#397);
#347=PLANE('',#398);
#348=PLANE('',#399);
#349=PLANE('',#400);
#350=PLANE('',#404);
#351=PLANE('',#405);
#352=PLANE('',#406);
#353=PLANE('',#407);
#354=PLANE('',#408);
#355=PLANE('',#409);
#356=PLANE('',#410);
#357=PLANE('',#411);
#358=PLANE('',#412);
#359=PLANE('',#413);
#360=ADVANCED_FACE('',(#325),#344,.T.);
#361=ADVANCED_FACE('',(#326),#345,.F.);
#362=ADVANCED_FACE('',(#327),#346,.T.);
#363=ADVANCED_FACE('',(#328),#347,.T.);
#364=ADVANCED_FACE('',(#329),#348,.T.);
#365=ADVANCED_FACE('',(#330),#349,.T.);
#366=ADVANCED_FACE('',(#331),#350,.T.);
#367=ADVANCED_FACE('',(#332),#351,.T.);
#368=ADVANCED_FACE('',(#333),#352,.T.);
#369=ADVANCED_FACE('',(#334),#353,.F.);
#370=ADVANCED_FACE('',(#335),#354,.T.);
#371=ADVANCED_FACE('',(#336),#355,.T.);
#372=ADVANCED_FACE('',(#337),#356,.F.);
#373=ADVANCED_FACE('',(#338),#357,.F.);
#374=ADVANCED_FACE('',(#339),#358,.F.);
#375=ADVANCED_FACE('',(#340),#359,.F.);
#376=ADVANCED_FACE('',(#341),#20,.T.);
#377=ADVANCED_FACE('',(#342),#21,.T.);
#378=ADVANCED_FACE('',(#343),#22,.T.);
#379=CLOSED_SHELL('',(#360,#361,#362,#363,#364,#365,#366,#367,#368,#369,
#370,#371,#372,#373,#374,#375,#376,#377,#378));
#380=STYLED_ITEM('',(#381),#388);
#381=PRESENTATION_STYLE_ASSIGNMENT((#382));
#382=SURFACE_STYLE_USAGE(.BOTH.,#383);
#383=SURFACE_SIDE_STYLE('',(#384));
#384=SURFACE_STYLE_FILL_AREA(#385);
#385=FILL_AREA_STYLE('',(#386));
#386=FILL_AREA_STYLE_COLOUR('',#387);
#387=COLOUR_RGB('',0.740000009536743,0.709999978542328,0.419999986886978);
#388=MANIFOLD_SOLID_BREP('',#379);
#389=SHAPE_DEFINITION_REPRESENTATION(#625,#390);
#390=SHAPE_REPRESENTATION('6CSLT1H',(#391),#620);
#391=AXIS2_PLACEMENT_3D('',#514,#417,#418);
#392=AXIS2_PLACEMENT_3D('',#515,#419,#420);
#393=AXIS2_PLACEMENT_3D('',#524,#425,#426);
#394=AXIS2_PLACEMENT_3D('',#528,#428,#429);
#395=AXIS2_PLACEMENT_3D('',#551,#441,#442);
#396=AXIS2_PLACEMENT_3D('',#555,#444,#445);
#397=AXIS2_PLACEMENT_3D('',#556,#446,#447);
#398=AXIS2_PLACEMENT_3D('',#560,#450,#451);
#399=AXIS2_PLACEMENT_3D('',#566,#455,#456);
#400=AXIS2_PLACEMENT_3D('',#572,#460,#461);
#401=AXIS2_PLACEMENT_3D('',#578,#465,#466);
#402=AXIS2_PLACEMENT_3D('',#579,#467,#468);
#403=AXIS2_PLACEMENT_3D('',#583,#470,#471);
#404=AXIS2_PLACEMENT_3D('',#596,#478,#479);
#405=AXIS2_PLACEMENT_3D('',#599,#482,#483);
#406=AXIS2_PLACEMENT_3D('',#600,#484,#485);
#407=AXIS2_PLACEMENT_3D('',#603,#488,#489);
#408=AXIS2_PLACEMENT_3D('',#604,#490,#491);
#409=AXIS2_PLACEMENT_3D('',#606,#493,#494);
#410=AXIS2_PLACEMENT_3D('',#607,#495,#496);
#411=AXIS2_PLACEMENT_3D('',#610,#499,#500);
#412=AXIS2_PLACEMENT_3D('',#611,#501,#502);
#413=AXIS2_PLACEMENT_3D('',#614,#505,#506);
#414=AXIS2_PLACEMENT_3D('',#616,#508,#509);
#415=AXIS2_PLACEMENT_3D('',#617,#510,#511);
#416=AXIS2_PLACEMENT_3D('',#618,#512,#513);
#417=DIRECTION('',(0.,0.,1.));
#418=DIRECTION('',(1.,0.,0.));
#419=DIRECTION('',(0.,0.,-1.));
#420=DIRECTION('',(-1.,0.,0.));
#421=DIRECTION('',(0.,-1.,0.));
#422=DIRECTION('',(1.,0.,0.));
#423=DIRECTION('',(0.,-1.,0.));
#424=DIRECTION('',(1.,0.,0.));
#425=DIRECTION('',(0.,-1.,0.));
#426=DIRECTION('',(0.,0.,-1.));
#427=DIRECTION('',(1.,0.,0.));
#428=DIRECTION('',(0.,-1.,0.));
#429=DIRECTION('',(0.,0.,-1.));
#430=DIRECTION('',(-1.24800250070274E-16,0.,-1.));
#431=DIRECTION('',(0.707106781186546,0.,0.707106781186549));
#432=DIRECTION('',(1.,0.,2.37633352873535E-16));
#433=DIRECTION('',(0.,0.,-1.));
#434=DIRECTION('',(-0.707106781186547,0.,-0.707106781186548));
#435=DIRECTION('',(-1.,0.,0.));
#436=DIRECTION('',(0.707106781186547,0.,-0.707106781186548));
#437=DIRECTION('',(0.,0.,1.));
#438=DIRECTION('',(-0.866025403784438,0.,-0.5));
#439=DIRECTION('',(0.,0.,-1.));
#440=DIRECTION('',(0.965925826289069,0.,-0.25881904510252));
#441=DIRECTION('',(0.,-1.,0.));
#442=DIRECTION('',(0.,0.,-1.));
#443=DIRECTION('',(0.,0.,-1.));
#444=DIRECTION('',(0.,-1.,0.));
#445=DIRECTION('',(0.,0.,-1.));
#446=DIRECTION('',(-1.,0.,1.24800250070274E-16));
#447=DIRECTION('',(1.24800250070274E-16,0.,1.));
#448=DIRECTION('',(0.,1.,0.));
#449=DIRECTION('',(0.,0.,-1.));
#450=DIRECTION('',(-1.,0.,0.));
#451=DIRECTION('',(0.,0.,1.));
#452=DIRECTION('',(0.,-1.,0.));
#453=DIRECTION('',(0.,0.,-1.));
#454=DIRECTION('',(0.,-1.,0.));
#455=DIRECTION('',(0.,0.,-1.));
#456=DIRECTION('',(-1.,0.,0.));
#457=DIRECTION('',(1.,0.,0.));
#458=DIRECTION('',(0.,1.,0.));
#459=DIRECTION('',(0.,1.,0.));
#460=DIRECTION('',(0.,-1.,0.));
#461=DIRECTION('',(0.,0.,-1.));
#462=DIRECTION('',(-0.707106781186547,0.,-0.707106781186548));
#463=DIRECTION('',(1.,0.,2.37633352873535E-16));
#464=DIRECTION('',(0.707106781186546,0.,0.707106781186549));
#465=DIRECTION('',(0.,-1.,0.));
#466=DIRECTION('',(0.,0.,-1.));
#467=DIRECTION('',(0.,-1.,0.));
#468=DIRECTION('',(0.,0.,-1.));
#469=DIRECTION('',(0.,0.,1.));
#470=DIRECTION('',(0.,-1.,0.));
#471=DIRECTION('',(0.,0.,-1.));
#472=DIRECTION('',(-0.965925826289069,0.,0.25881904510252));
#473=DIRECTION('',(0.,0.,1.));
#474=DIRECTION('',(0.866025403784438,0.,0.5));
#475=DIRECTION('',(0.,0.,1.));
#476=DIRECTION('',(0.707106781186547,0.,-0.707106781186548));
#477=DIRECTION('',(-1.,0.,0.));
#478=DIRECTION('',(0.,0.,1.));
#479=DIRECTION('',(1.,0.,0.));
#480=DIRECTION('',(0.,-1.,0.));
#481=DIRECTION('',(0.,-1.,0.));
#482=DIRECTION('',(-0.707106781186548,0.,0.707106781186547));
#483=DIRECTION('',(0.707106781186547,0.,0.707106781186548));
#484=DIRECTION('',(1.,0.,0.));
#485=DIRECTION('',(0.,0.,-1.));
#486=DIRECTION('',(0.,1.,0.));
#487=DIRECTION('',(0.,1.,0.));
#488=DIRECTION('',(-0.707106781186548,0.,-0.707106781186547));
#489=DIRECTION('',(-0.707106781186547,0.,0.707106781186548));
#490=DIRECTION('',(2.37633352873535E-16,0.,-1.));
#491=DIRECTION('',(-1.,0.,-2.37633352873535E-16));
#492=DIRECTION('',(0.,-1.,0.));
#493=DIRECTION('',(0.707106781186549,0.,-0.707106781186546));
#494=DIRECTION('',(-0.707106781186546,0.,-0.707106781186549));
#495=DIRECTION('',(-1.,0.,0.));
#496=DIRECTION('',(0.,0.,1.));
#497=DIRECTION('',(0.,1.,0.));
#498=DIRECTION('',(0.,1.,0.));
#499=DIRECTION('',(-0.5,0.,0.866025403784438));
#500=DIRECTION('',(0.866025403784438,0.,0.5));
#501=DIRECTION('',(-1.,0.,0.));
#502=DIRECTION('',(0.,0.,1.));
#503=DIRECTION('',(0.,1.,0.));
#504=DIRECTION('',(0.,1.,0.));
#505=DIRECTION('',(-0.25881904510252,0.,-0.965925826289069));
#506=DIRECTION('',(-0.965925826289069,0.,0.25881904510252));
#507=DIRECTION('',(0.,1.,0.));
#508=DIRECTION('',(0.,1.,0.));
#509=DIRECTION('',(0.,0.,1.));
#510=DIRECTION('',(0.,-1.,0.));
#511=DIRECTION('',(0.,0.,-1.));
#512=DIRECTION('',(0.,1.,0.));
#513=DIRECTION('',(0.,0.,1.));
#514=CARTESIAN_POINT('',(0.,0.,0.));
#515=CARTESIAN_POINT('',(-9.,76.9886355249916,-14.85));
#516=CARTESIAN_POINT('',(-5.,76.9886355249916,-14.85));
#517=CARTESIAN_POINT('',(-5.,11.,-14.85));
#518=CARTESIAN_POINT('',(-5.,0.,-14.85));
#519=CARTESIAN_POINT('',(-9.,0.,-14.85));
#520=CARTESIAN_POINT('',(-9.,0.,-14.85));
#521=CARTESIAN_POINT('',(-9.,76.9886355249916,-14.85));
#522=CARTESIAN_POINT('',(-9.,11.,-14.85));
#523=CARTESIAN_POINT('',(0.,11.,-14.85));
#524=CARTESIAN_POINT('',(0.,11.,0.));
#525=CARTESIAN_POINT('',(-25.,11.,-28.75));
#526=CARTESIAN_POINT('',(-3.5,11.,-28.75));
#527=CARTESIAN_POINT('',(11.5,11.,-28.75));
#528=CARTESIAN_POINT('',(-3.5,11.,-27.25));
#529=CARTESIAN_POINT('',(-5.,11.,-27.25));
#530=CARTESIAN_POINT('',(-5.,11.,6.2400125035137E-16));
#531=CARTESIAN_POINT('',(2.92499999999998,11.,-2.92499999999996));
#532=CARTESIAN_POINT('',(-10.4,11.,-16.25));
#533=CARTESIAN_POINT('',(3.86154198419494E-15,11.,-16.25));
#534=CARTESIAN_POINT('',(-25.,11.,-16.25));
#535=CARTESIAN_POINT('',(-25.,11.,28.75));
#536=CARTESIAN_POINT('',(-25.,11.,17.75));
#537=CARTESIAN_POINT('',(-21.375,11.,21.375));
#538=CARTESIAN_POINT('',(-14.,11.,28.75));
#539=CARTESIAN_POINT('',(25.,11.,28.75));
#540=CARTESIAN_POINT('',(14.,11.,28.75));
#541=CARTESIAN_POINT('',(21.375,11.,21.375));
#542=CARTESIAN_POINT('',(25.,11.,17.75));
#543=CARTESIAN_POINT('',(25.,11.,-28.75));
#544=CARTESIAN_POINT('',(25.,11.,-14.6670962313452));
#545=CARTESIAN_POINT('',(11.,11.,-22.75));
#546=CARTESIAN_POINT('',(11.,11.,-22.75));
#547=CARTESIAN_POINT('',(11.,11.,-24.35));
#548=CARTESIAN_POINT('',(11.,11.,-24.35));
#549=CARTESIAN_POINT('',(11.,11.,-24.35));
#550=CARTESIAN_POINT('',(12.3882285676538,11.,-24.7219747236126));
#551=CARTESIAN_POINT('',(12.,11.,-26.1708634630462));
#552=CARTESIAN_POINT('',(13.5,11.,-26.1708634630462));
#553=CARTESIAN_POINT('',(13.5,11.,-25.0198729810778));
#554=CARTESIAN_POINT('',(13.5,11.,-26.75));
#555=CARTESIAN_POINT('',(11.5,11.,-26.75));
#556=CARTESIAN_POINT('',(-5.,76.9886355249916,-14.85));
#557=CARTESIAN_POINT('',(-5.,76.9886355249916,-27.25));
#558=CARTESIAN_POINT('',(-5.,0.,-27.25));
#559=CARTESIAN_POINT('',(-5.,0.,-14.85));
#560=CARTESIAN_POINT('',(-25.,11.,28.75));
#561=CARTESIAN_POINT('',(-25.,76.9886355249916,-16.25));
#562=CARTESIAN_POINT('',(-25.,0.,-16.25));
#563=CARTESIAN_POINT('',(-25.,0.,28.75));
#564=CARTESIAN_POINT('',(-25.,0.,17.75));
#565=CARTESIAN_POINT('',(-25.,76.9886355249916,17.75));
#566=CARTESIAN_POINT('',(-25.,11.,-28.75));
#567=CARTESIAN_POINT('',(-25.,0.,-28.75));
#568=CARTESIAN_POINT('',(-3.5,0.,-28.75));
#569=CARTESIAN_POINT('',(11.5,0.,-28.75));
#570=CARTESIAN_POINT('',(-3.5,11.,-28.75));
#571=CARTESIAN_POINT('',(11.5,0.,-28.75));
#572=CARTESIAN_POINT('',(0.,0.,0.));
#573=CARTESIAN_POINT('',(-14.,0.,28.75));
#574=CARTESIAN_POINT('',(-14.,0.,28.75));
#575=CARTESIAN_POINT('',(-25.,0.,-16.25));
#576=CARTESIAN_POINT('',(-10.4,0.,-16.25));
#577=CARTESIAN_POINT('',(-10.4,0.,-16.25));
#578=CARTESIAN_POINT('',(-3.5,0.,-27.25));
#579=CARTESIAN_POINT('',(11.5,0.,-26.75));
#580=CARTESIAN_POINT('',(13.5,0.,-26.75));
#581=CARTESIAN_POINT('',(13.5,0.,-25.0198729810778));
#582=CARTESIAN_POINT('',(13.5,0.,-26.1708634630462));
#583=CARTESIAN_POINT('',(12.,0.,-26.1708634630462));
#584=CARTESIAN_POINT('',(12.3882285676538,0.,-24.7219747236126));
#585=CARTESIAN_POINT('',(11.,0.,-24.35));
#586=CARTESIAN_POINT('',(11.,0.,-24.35));
#587=CARTESIAN_POINT('',(11.,0.,-24.35));
#588=CARTESIAN_POINT('',(11.,0.,-22.75));
#589=CARTESIAN_POINT('',(11.,0.,-22.75));
#590=CARTESIAN_POINT('',(25.,0.,-14.6670962313452));
#591=CARTESIAN_POINT('',(25.,0.,-28.75));
#592=CARTESIAN_POINT('',(25.,0.,17.75));
#593=CARTESIAN_POINT('',(14.,0.,28.75));
#594=CARTESIAN_POINT('',(14.,0.,28.75));
#595=CARTESIAN_POINT('',(25.,0.,28.75));
#596=CARTESIAN_POINT('',(25.,11.,28.75));
#597=CARTESIAN_POINT('',(-14.,76.9886355249916,28.75));
#598=CARTESIAN_POINT('',(14.,76.9886355249916,28.75));
#599=CARTESIAN_POINT('',(-14.,76.9886355249916,28.75));
#600=CARTESIAN_POINT('',(25.,11.,-28.75));
#601=CARTESIAN_POINT('',(25.,11.,17.75));
#602=CARTESIAN_POINT('',(25.,-76.9886355249916,-14.6670962313452));
#603=CARTESIAN_POINT('',(14.,76.9886355249916,28.75));
#604=CARTESIAN_POINT('',(-25.,76.9886355249916,-16.25));
#605=CARTESIAN_POINT('',(-10.4,76.9886355249916,-16.25));
#606=CARTESIAN_POINT('',(-10.4,76.9886355249916,-16.25));
#607=CARTESIAN_POINT('',(11.,-76.9886355249916,-24.35));
#608=CARTESIAN_POINT('',(11.,-76.9886355249916,-24.35));
#609=CARTESIAN_POINT('',(11.,-76.9886355249916,-22.75));
#610=CARTESIAN_POINT('',(11.,-76.9886355249916,-22.75));
#611=CARTESIAN_POINT('',(13.5,-76.9886355249916,-25.0198729810778));
#612=CARTESIAN_POINT('',(13.5,11.,-26.75));
#613=CARTESIAN_POINT('',(13.5,-76.9886355249916,-26.1708634630462));
#614=CARTESIAN_POINT('',(11.,-76.9886355249916,-24.35));
#615=CARTESIAN_POINT('',(12.3882285676538,-76.9886355249916,-24.7219747236126));
#616=CARTESIAN_POINT('',(12.,-76.9886355249916,-26.1708634630462));
#617=CARTESIAN_POINT('',(11.5,-76.9886355249916,-26.75));
#618=CARTESIAN_POINT('',(-3.5,11.,-27.25));
#619=MECHANICAL_DESIGN_GEOMETRIC_PRESENTATION_REPRESENTATION('',(#380),
#620);
#620=(
GEOMETRIC_REPRESENTATION_CONTEXT(3)
GLOBAL_UNCERTAINTY_ASSIGNED_CONTEXT((#621))
GLOBAL_UNIT_ASSIGNED_CONTEXT((#624,#623,#622))
REPRESENTATION_CONTEXT('6CSLT1H','TOP_LEVEL_ASSEMBLY_PART')
);
#621=UNCERTAINTY_MEASURE_WITH_UNIT(LENGTH_MEASURE(0.005),#624,
'DISTANCE_ACCURACY_VALUE','Maximum Tolerance applied to model');
#622=(
NAMED_UNIT(*)
SI_UNIT($,.STERADIAN.)
SOLID_ANGLE_UNIT()
);
#623=(
NAMED_UNIT(*)
PLANE_ANGLE_UNIT()
SI_UNIT($,.RADIAN.)
);
#624=(
LENGTH_UNIT()
NAMED_UNIT(*)
SI_UNIT(.MILLI.,.METRE.)
);
#625=PRODUCT_DEFINITION_SHAPE('','',#626);
#626=PRODUCT_DEFINITION('','',#628,#627);
#627=PRODUCT_DEFINITION_CONTEXT('',#634,'design');
#628=PRODUCT_DEFINITION_FORMATION_WITH_SPECIFIED_SOURCE('','',#630,
 .NOT_KNOWN.);
#629=PRODUCT_RELATED_PRODUCT_CATEGORY('','',(#630));
#630=PRODUCT('6CSLT1H','6CSLT1H','6CSLT1H',(#632));
#631=PRODUCT_CATEGORY('','');
#632=PRODUCT_CONTEXT('',#634,'mechanical');
#633=APPLICATION_PROTOCOL_DEFINITION('international standard',
'automotive_design',2010,#634);
#634=APPLICATION_CONTEXT(
'core data for automotive mechanical design processes');
ENDSEC;
END-ISO-10303-21;
